Song name
# A B C D E F G H I J K L M N O P Q R S T U V W X Y Z

Trapt - Lost Realist tab

Help us improve GuitareTab! Take a short survey!
This is my first tab, but I think it turned out really good. NOTE: I used the star to 
to play more strongly than the one before it.

Standard tuning

(0:04) Intro, Verse 1

e|-----------------------------------------------------------------------------|
B|-----------------------------------------------------------------------------|
G|--6-*6--6-*6--6-*6---6-------6-*6-6---------6--5--6--------------------------|
D|6------------------6---6---6--------6----6-----------------------------------|
A|-------------------------4-------------4-------------------------------------|
E|-----------------------------------------------------------------------------|x6


(0:52) Verse 1 (2nd time through play 2nd half w/ distortion)

e|---------------------------------------------------------------------------|
B|---------------------------------------------------------------------------|
G|----10-8-6-5--------10-8-6-5-6-/8------------------------------------------|
D|8------------6-/8----------------8-----------------------------------------|
A|---------------------------------------------------------------------------|
E|---------------------------------------------------------------------------|x2


(1:09) Chorus
e|---------------------------------------------------------------------------|
B|---------------------------------------------------------------------------|
G|-6-------------------------------------------------------------------------|
D|-6----8----6----4----8----6----4-------------------------------------------|
A|-4----8----6----4----8----6----4-------------------------------------------|
E|------6----4----2----6----4----2-------------------------------------------|

(1:25) Verse 2
e|-----------------------------------------------------------------------------|
B|-----------------------------------------------------------------------------|
G|--6-*6--6-*6--6-*6---6-------6-*6-6---------6--5--6--------------------------|
D|6------------------6---6---6--------6----6-----------------------------------|
A|-------------------------4-------------4-------------------------------------|
E|-----------------------------------------------------------------------------|x5

(2:04) (2nd time through play 2nd half w/ distortion)

e|---------------------------------------------------------------------------|
B|---------------------------------------------------------------------------|
G|----10-8-6-5--------10-8-6-5-6-/8------------------------------------------|
D|8------------6-/8----------------8-----------------------------------------|
A|---------------------------------------------------------------------------|
E|---------------------------------------------------------------------------|x2

(2:20) Chorus
e|---------------------------------------------------------------------------|
B|---------------------------------------------------------------------------|
G|-6-------------------------------------------------------------------------|
D|-6----8----6----4----8----6----4-------------------------------------------|
A|-4----8----6----4----8----6----4-------------------------------------------|
E|------6----4----2----6----4----2-------------------------------------------|


(2:38) Bridge (staccato all notes in bridge only)
e|---------------------------------------------------------------------------|
B|---------------------------------------------------------------------------|
G|---------------------------------------------------------------------------|
D|8-8-8-8-8-8-8-8-10-10-10-10-10-10-11-11------------------------------------|
A|---------------------------------------------------------------------------|
E|---------------------------------------------------------------------------|

e|---------------------------------------------------------------------------|
B|---------------------------------------------------------------------------|
G|---------------------------------10--8-------------------------------------|
D|8-8-8-8-8-8-8-8-10-10-10-10-10-11--11--------------------------------------|
A|---------------------------------------------------------------------------|
E|---------------------------------------------------------------------------|

e|---------------------------------------------------------------------------|
B|---------------------------------------------------------------------------|
G|--10--8--------------------------------------------------------------------|
D|11--11---------------------------------------------------------------------|
A|---------------------------------------------------------------------------|
E|---------------------------------------------------------------------------| x3
End Bridge

(3:21) Final Chorus
e|---------------------------------------------------------------------------|
B|---------------------------------------------------------------------------|
G|-6-------------------------------------------------------------------------|
D|-6----8----6----4----8----6----4-------------------------------------------|
A|-4----8----6----4----8----6----4-------------------------------------------|
E|------6----4----2----6----4----2-------------------------------------------|

(3:36) Play w/ distortion the whole way through
e|---------------------------------------------------------------------------|
B|---------------------------------------------------------------------------|
G|----10-8-6-5--------10-8-6-5-6-/8------------------------------------------|
D|8------------6-/8----------------8-----------------------------------------|
A|---------------------------------------------------------------------------|
E|---------------------------------------------------------------------------|x2
Related for Lost Realist tab