Song name
# A B C D E F G H I J K L M N O P Q R S T U V W X Y Z

Trapt - Still Frame tab

#----------------------------------PLEASE NOTE---------------------------------#
#This file is the author's own work and represents their interpretation of the #
#song. You may only use this file for private study, scholarship, or research. #
#------------------------------------------------------------------------------#

STILL FRAME
As recorded by Trapt
(From the 2002 Album TRAPT)

Transcribed by unregistered
	

Words and Music by Christopher Brown, Simon Ormandy, and Peter Charell

Gtr I (B E A D G B E) - 'Guitar 1 clean'
Gtr II (B E A D G B E) - 'Guitar 1 now distorted'
Gtr III (B E A D G B E) - 'Guitar 2 (clean) w/ delay'

 Intro
  Moderate Rock Q=114
 4/4
  Gtr I
  W           S  S S S E  S  S S S E Q    S S S S E  S  S S S E Q
|----------|----------------------------|---------------------------|
|----------|----------------------------|---------------------------|
|----------|----------------------------|---------------------------|
|----------|----------------------------|---------------------------|
|----------|----------------------------|---------------------------|
|----------|----------------------------|---------------------------|
|----------|-12-12-0-0-0-10-10---0---0--|-8-8-0-0-0-10-10---0---0---|


   S  S S S E  S  S S S S S +Q     S S S S E  S  S S S S  S  +Q
|--------------------------------|--------------------------------||
|--------------------------------|--------------------------------||
|--------------------------------|--------------------------------||
|--------------------------------|--------------------------------||
|--------------------------------|--------------------------------||
|--------------------------------|--------------------------------||
|-12-12-0-0-0-10-10---0---0-(0)--|-8-8-0-0-0-10-10---0---12-(12)--||


   Chorus
    $
    $$
    B         A5  B        G  B     A5  B
    Gtr II
                           ~~
    S S S S E E S S E Q    E. S +E  E S S E Q
||-----------------------|---------------------|
||-----------------------|---------------------|
||o-8-8-8-8-8-----8---8--|----8-(8)-----8---8--|
||--9-9-9-9-9-----9---9--|----9-(9)-----9---9--|
||o-9-9-9-9-9-7---9---9--|----9-(9)-7---9---9--|
||--7-7-7-7-7-5---7---7--|----7-(7)-5---7---7--|
||--0-0-0-0-0-----0---0--|-8--0-(0)-----0---0--|


  B         A5  B        G  B     A5  B
                         ~~
  S S S S E E S S E Q    E. S +E  E S S E Q
|----------------------|---------------------|
|----------------------|---------------------|
|-8-8-8-8-8-----8---8--|----8-(8)-----8---8--|
|-9-9-9-9-9-----9---9--|----9-(9)-----9---9--|
|-9-9-9-9-9-7---9---9--|----9-(9)-7---9---9--|
|-7-7-7-7-7-5---7---7--|----7-(7)-5---7---7--|
|-0-0-0-0-0-----0---0--|-8--0-(0)-----0---0--|


  B         A5  B        G  B     A5  B
                         ~~
  S S S S E E S S E Q    E. S +E  E S S E Q
|----------------------|---------------------|
|----------------------|---------------------|
|-8-8-8-8-8-----8---8--|----8-(8)-----8---8--|
|-9-9-9-9-9-----9---9--|----9-(9)-----9---9--|
|-9-9-9-9-9-7---9---9--|----9-(9)-7---9---9--|
|-7-7-7-7-7-5---7---7--|----7-(7)-5---7---7--|
|-0-0-0-0-0-----0---0--|-8--0-(0)-----0---0--|


  B         A5  B        G  B     A5  B
                         ~~
  S S S S E E S S E Q    E. S +E  E S S E Q
|----------------------|---------------------|
|----------------------|---------------------|
|-8-8-8-8-8-----8---8--|----8-(8)-----8---8--|
|-9-9-9-9-9-----9---9--|----9-(9)-----9---9--|
|-9-9-9-9-9-7---9---9--|----9-(9)-7---9---9--|
|-7-7-7-7-7-5---7---7--|----7-(7)-5---7---7--|
|-0-0-0-0-0-----0---0--|-8--0-(0)-----0---0--|


  F#susB/B     F#sus4/B   B      F#susEsus2E       Esus2
  Q.   E +Q.   S S   Q.   E +Q   Q    Q.   E +Q.   S S
|------------------|----------------|------------------|
|-2----4-(4)---2-2-|-2----4-(4)--2--|-7----9-(9)---7-7-|
|-4----4-(4)---4-4-|-4----4-(4)--4--|-9----9-(9)---9-9-|
|-4----4-(4)---4-4-|-4----4-(4)--4--|-9----9-(9)---9-9-|
|-2----2-(2)---2-2-|-2----2-(2)--2--|-7----7-(7)---7-7-|
|-2----2-(2)---2-2-|-2----2-(2)--2--|-0----0-(0)---0-0-|
|-0----0-(0)---0-0-|-0----0-(0)--0--|------------------|


                                                                   To Coda
                                                                   To Coda
                     F#susB/B     F#sus4/B   B      F#susEsus2E       Esus2
  Q.   E +Q.   S S   Q.   E +Q.   S S   Q.   E +Q   Q    Q.   E +Q.   S S
|------------------|------------------|----------------|--------------------|
|-7----7-(7)---x-x-|-2----4-(4)---2-2-|-2----4-(4)--2--|-7----9-(9)---7-7---|
|-9----9-(9)---x-x-|-4----4-(4)---4-4-|-4----4-(4)--4--|-9----9-(9)---9-9---|
|-9----9-(9)---x-x-|-4----4-(4)---4-4-|-4----4-(4)--4--|-9----9-(9)---9-9---|
|-7----7-(7)---x-x-|-2----2-(2)---2-2-|-2----2-(2)--2--|-7----7-(7)---7-7---|
|-0----0-(0)---x-x-|-2----2-(2)---2-2-|-2----2-(2)--2--|-0----0-(0)---0-0---|
|------------------|-0----0-(0)---0-0-|-0----0-(0)--0--|--------------------|


                     Verse
                      B
                      PM---------------------------
  Q.   E +Q.   S S    S S S S E S S S S E S S S S
|------------------||-----------------------------|
|-7----7-(7)---x-x-||-----------------------------|
|-9----9-(9)---x-x-||-------8---------8-----------|
|-9----9-(9)---x-x-||-9-9-9-----9-9-9-----9-9-9-9-|
|-7----7-(7)---x-x-||-----------------------------|
|-0----0-(0)---x-x-||-----------------------------|
|------------------||-----------------------------|


  A
 ---------------------------|
  S S S S E S S S S E S S S S
|------------------------------|
|------------------------------|
|-------6---------6------------|
|-7-7-7-----7-7-7-----7-7-7-7--|
|------------------------------|
|------------------------------|
|------------------------------|


  G                             A
  PM---------------------------------------------------------
  S S S S E S S S S E S S S S   S S S S E S S S S E S S S S
|-----------------------------|-----------------------------|
|-----------------------------|-----------------------------|
|-------4---------4-----------|-------6---------6-----------|
|-5-5-5-----5-5-5-----5-5-5-5-|-7-7-7-----7-7-7-----7-7-7-7-|
|-----------------------------|-----------------------------|
|-----------------------------|-----------------------------|
|-----------------------------|-----------------------------|


  B
 ---------------------------|
  S S S S E S S S S E S S S S
|------------------------------|
|------------------------------|
|-------8---------8------------|
|-9-9-9-----9-9-9-----9-9-9-9--|
|------------------------------|
|------------------------------|
|------------------------------|


  A                             G
  PM------------------------------------------------------|
  S S S S E S S S S E S S S S   S S S S E S S S S E S S S S
|-----------------------------|-----------------------------|
|-----------------------------|-----------------------------|
|-------6---------6-----------|-------4---------4-----------|
|-7-7-7-----7-7-7-----7-7-7-7-|-5-5-5-----5-5-5-----5-5-5-5-|
|-----------------------------|-----------------------------|
|-----------------------------|-----------------------------|
|-----------------------------|-----------------------------|


  1.                        2.
  A                          A                        B
  PM--------------|   ~      PM--------------|   ~
  S S S S E S S S S E Q      S S S S E S S S S E Q    S E S +E  E E E E E
|-------------------------||------------------------|----------------------|
|-------------------------||------------------------|----------------------|
|-------6---------6------o||-------6---------6------|-----------8-----8----|
|-7-7-7-----7-7-7-----7---||-7-7-7-----7-7-7-----7--|-7s9-9-(9)---9-9---9--|
|------------------------o||------------------------|----------------------|
|-------------------------||------------------------|----------------------|
|-------------------------||------------------------|----------------------|


  A                     G                     A
                                                                  ~
                                                            |-3-|
  S E S +E  E E E E E   S E S +E  E E E E E   S E S +E  E E S S S Q
|---------------------|---------------3-----|-------------------------|
|---------------------|---------------------|-------------------------|
|-----------6---6---6-|-----------4-----4---|-----------6---6h9p6-----|
|-9s7-7-(7)---7---7---|-7s5-5-(5)---5-----5-|-5s7-7-(7)---7-------7---|
|---------------------|---------------------|-------------------------|
|---------------------|---------------------|-------------------------|
|---------------------|---------------------|-------------------------|


  B                     A
  S E S +E  E E E E E   S E S +E  E E E E E
|---------------------|---------------------|
|---------------------|---------------------|
|-----------8-----8---|-----------6---6---6-|
|-7s9-9-(9)---9-9---9-|-9s7-7-(7)---7---7---|
|---------------------|---------------------|
|---------------------|---------------------|
|---------------------|---------------------|


                             D.S. al Coda
  G                     A
  S E S +E  E E E E E   S E S +E  E Q  Q
|---------------3-----|--------------------||
|---------------------|--------------------||
|-----------4-----4---|-----------6--------||
|-7s5-5-(5)---5-----5-|-5s7-7-(7)---7------||
|---------------------|--------------------||
|---------------------|--------------------||
|---------------------|--------------------||


             Bridge
  &
              B                  A                   G
              Gtr III
  W           Q.   E +Q   a Q    E E E E +Q   a Q    E E E E +Q   a Q
|----------||------------------|-------------------|-------------------|
|----------||------------------|-------------------|-------------------|
|----------||-9----8-(8)--8h9--|-8------------8h9--|-8------------8h9--|
|----------||------------------|---9-0-7-(7)-------|---9-0-7-(7)-------|
|----------||------------------|-------------------|-------------------|
|----------||------------------|-------------------|-------------------|
|----------||------------------|-------------------|-------------------|


  A                   B
  a  E E E E E Q.      S  S  S  S S S  S  S  S  S S S  S  S S S
|-------------------|-19-19-19-19-0-0-19-19-19-19-0-0-19-19-0-0-|
|-------------------|-------------------------------------------|
|-9s11-9-8----------|-------------------------------------------|
|----------9-7-9----|-------------------------------------------|
|-------------------|-------------------------------------------|
|-------------------|-------------------------------------------|
|-------------------|-------------------------------------------|


  A                               B
   S  S  S  S S S  S  S  S  S S S  S  S S S
|-17-17-17-17-0-0-17-17-17-17-0-0-19-19-0-0---|
|---------------------------------------------|
|---------------------------------------------|
|---------------------------------------------|
|---------------------------------------------|
|---------------------------------------------|
|---------------------------------------------|


  G                               A
   S  S  S  S S S  S  S  S  S S S  S  S S S
|-15-15-15-15-0-0-15-15-15-15-0-0-17-17-0-0-|
|-------------------------------------------|
|-------------------------------------------|
|-------------------------------------------|
|-------------------------------------------|
|-------------------------------------------|
|-------------------------------------------|


  F#                E               F#
   S  S  S  S  S  S  S  S  S  S S S  S  S  S  S
|-14-14-14-14-14-14-12-12-12-12-0-0-14-14-14-14--|
|------------------------------------------------|
|------------------------------------------------|
|------------------------------------------------|
|------------------------------------------------|
|------------------------------------------------|
|------------------------------------------------|


  B                                  A
   Q       Q       H                 W
|-14-------------------------------|----------------------------------|
|----------------------------------|----------------------------------|
|----------------------------------|----------------------------------|
|----------------------------------|----------------------------------|
|----------------------------------|----------------------------------|
|----------------------------------|----------------------------------|
|----------------------------------|----------------------------------|
|
| Gtr I
|  S S S S S S S S S S S S S S S S   S S S S S S S S S S S S S S S S
|----------------------------------|----------------------------------|
|----------------------------------|----------------------------------|
|----------------------------------|----------------------------------|
|----------------------------------|----------------------------------|
|--6-6-6-6-x-x-6-6-6-6-x-x-6-6-x---|-4-4-4-4-x-x-4-4-4-4-x-x-4-4-x----|
|--7-7-7-7-x-x-7-7-7-7-x-x-7-7-x-0-|-5-5-5-5-x-x-5-5-5-5-x-x-5-5-x-0--|
|----------------------------------|----------------------------------|


  G                                 A
  Gtr I
  S S S S S S S S S S S S S S S S   S S S S S S S S S S S S S S E
|---------------------------------|-------------------------------|
|---------------------------------|-------------------------------|
|---------------------------------|-------------------------------|
|---------------------------------|-------------------------------|
|-2-2-2-2-x-x-2-2-2-2-x-x-2-2-x-x-|-4-4-4-4-x-x-4-4-4-4-x-x-4-4---|
|-3-3-3-3-x-x-3-3-3-3-x-x-3-3-x-x-|-5-5-5-5-x-x-5-5-5-5-x-x-5-5---|
|---------------------------------|-------------------------------|


  B                                 A
  S S S S S S S S S S S S S S S S   S S S S S S S S S S S S S S S S
|---------------------------------|----------------------------------|
|---------------------------------|----------------------------------|
|---------------------------------|----------------------------------|
|---------------------------------|----------------------------------|
|-6-6-6-6-6-6-6-6-6-6-6-6-6-6-6-0-|-4-4-4-4-4-4-4-4-4-4-4-4-4-4-4-0--|
|-7-7-7-7-7-7-7-7-7-7-7-7-7-7-7---|-5-5-5-5-5-5-5-5-5-5-5-5-5-5-5----|
|---------------------------------|----------------------------------|


                                      D.S.S. al Dbl. Coda
  G                                 A
  S S S S S S S S S S S S S S S S   S S S S S S S S Q  Q
|---------------------------------|-----------------------||
|---------------------------------|-----------------------||
|---------------------------------|-----------------------||
|---------------------------------|-----------------------||
|-2-2-2-2-2-2-2-2-2-2-2-2-2-2-2-2-|-4-4-4-4-4-4-4-4-4-----||
|-3-3-3-3-3-3-3-3-3-3-3-3-3-3-3-3-|-5-5-5-5-5-5-5-5-5-----||
|---------------------------------|-----------------------||


              Outro
  &&
               D#     D           E      B5
           Gtr II
  W            E. S E E +Q   Q    E. S E E +Q   Q
|----------||-------------------|------------------|
|----------||-------------------|------------------|
|----------||o-8--8---7-(7)--7--|-9--9---4-(4)--4--|
|----------||--x--x---x-(x)--x--|-x--x---4-(4)--4--|
|----------||o-6--6---5-(5)--5--|-7--7---2-(2)--2--|
|----------||-------------------|--------2-(2)--2--|
|----------||-------------------|--------0-(0)--0--|


                    1.
  D#     D           E      B5
  E. S E E +Q   Q    E. S E E +Q   Q
|------------------|-------------------||
|------------------|-------------------||
|-8--8---7-(7)--7--|-9--9---4-(4)--4--o||
|-x--x---x-(x)--x--|-x--x---4-(4)--4---||
|-6--6---5-(5)--5--|-7--7---2-(2)--2--o||
|------------------|--------2-(2)--2---||
|------------------|--------0-(0)--0---||


  2.
  E      B5
  E. S E E +H       +W           +W
|-----------------|------------|--------*|
|-----------------|------------|--------*|
|-9--9---4-(4)----|-(4)--------|-(4)----*|
|-x--x---4-(4)----|-(4)--------|-(4)----*|
|-7--7---2-(2)----|-(2)--------|-(2)----*|
|--------2-(2)----|-(2)--------|-(2)----*|
|--------0-(0)----|-(0)--------|-(0)----*|



Duration Legend
---------------
W - whole; H - half; Q - quarter; E - 8th; S - 16th; T - 32nd; X - 64th; a - acciaccatura
+ - note tied to previous; . - note dotted; .. - note double dotted
Uncapitalized letters represent notes that are staccato (1/2 duration)
Irregular groupings are notated above the duration line
Duration letters will always appear directly above the note/fret number it represents the
duration for.  Duration letters with no fret number below them represent rests.  Multi-
bar rests are notated in the form Wxn, where n is the number of bars to rest for.  Low
melody durations appear below the staff

Tablature Legend
----------------
 h   - hammer-on
 p   - pull-off
 b   - bend
 pb  - pre-bend
 r   - bend release (if no number after the r, then release immediately)
 /\  - slide into or out of (from/to "nowhere")
 s   - legato slide
 S   - shift slide
 - natural harmonic
[n]  - artificial harmonic
n(n) - tapped harmonic
 ~   - vibrato
 tr  - trill
 T   - tap
 TP  - trem. picking
 PM  - palm muting
\n/  - tremolo bar dip; n = amount to dip
 \n  - tremolo bar down
 n/  - tremolo bar up
/n\  - tremolo bar inverted dip
 =   - hold bend; also acts as connecting device for hammers/pulls
 <> - volume swell (louder/softer)
 x   - on rhythm slash represents muted slash
 o   - on rhythm slash represents single note slash

Misc Legend
-----------
 |  - bar
||  - double bar
||o - repeat start
o|| - repeat end
*|  - double bar (ending)
 :  - bar (freetime)
 $  - Segno
 &  - Coda
Tempo markers -  = BPM(8/16=s8/s16), where s8 = swing 8ths, s16 = swing 16ths

Tap to rate this tab
# A B C D E F G H I J K L M N O P Q R S T U V W X Y Z