Song name
# A B C D E F G H I J K L M N O P Q R S T U V W X Y Z

Trash Light Vision - Horns And Halos tab

Help us improve GuitareTab! Take a short survey!
----------------------------------------------------------------------------
		    Horns and Halos- Trashlight Vision
                  From the Album: Alibas and Ammunation
----------------------------------------------------------------------------
Tabbed by: Daz
Email: dariuswarr99@hotmail.com

Tuning: 1/2 step Down

INTRO

    N.C (B5)

eb|------------------------------------------------------------------------|
Bb|------------------------------------------------------------------------|
Gb|-5---5-------5---5-------5---5-------5---5-------5---5-------5---5---2--|
Db|-5-5-5-5-7---5-5-5-5-7---5-5-5-5-5---5-5-5-5-5---5-5-5-5-3-5-5-5-5-5-2--|
Ab|-3-5-3-5-7---3-5-3-5-7---3-5-3-5-5---3-5-3-5-5---3-5-3-5-3-5-3-5-3-5-0--|
Eb|---3---3-5-----3---3-5-----3---3-7-----3---3-7-----3---3-1-3---3---3----|

VERSE
  
   G#5      B5       F#5      G#5        B5          F#5      N.C (G#5)

eb|------------------------------------------------------------------------|
Bb|------------------------------------------------------------------------|
Gb|-2--------5-----------------2----------5----------------------(2)-------|
Db|-2--------5--------5--------2----------5-----------5----------(2)-------|
Ab|-0--------3--------5--------0----------3-----------5----------(0)-------|
Eb|-------------------3-------------------------------3--------------------|

CHORUS

    N.C (B5)

eb|------------------------------------------------------------------------|
Bb|------------------------------------------------------------------------|
Gb|-5---2-----5---2-----5---2-----5---2-----5------------------------------|
Db|-5-5-2-----5-5-2-----5-5-2-----5-5-2-----5-5-3-5------------------------|
Ab|-3-5-0-----3-5-0-----3-5-0-----3-5-0-----3-5-3-5------------------------|
Eb|---3---------3---------3---------3---------3-1-3------------------------|


============================================================================
Related for Horns And Halos tab