Song name
# A B C D E F G H I J K L M N O P Q R S T U V W X Y Z

Trash Light Vision - Scareanoid tab

----------------------------------------------------------------------------
		      Scareanoid- Trashlight Vision
                   From the Album: Alibas and Ammunition
----------------------------------------------------------------------------
Tabbed by: Daz
Email: dariuswarr99@hotmail.com

Tuning: Standard

INTRO

    A5              C5      G5           A5              C5       G5

e|-------------------------------------------------------------------------|
B|-------------------------------------------------------------------------|
G|--2-2-2-2-2-2-2-2-----------------------2-2-2-2-2-2-2--------------------|
D|--2-2-2-2-2-2-2-2-10-10-10-5------------2-2-2-2-2-2-2--10-10-10-5--------|
A|--0-0-0-0-0-0-0-0-10-10-10-5------------0-0-0-0-0-0-0--10-10-10-5--------|
E|------------------8--8--8--3---------------------------8--8--8--3--------|

VERSE

    A5              C5      G5           A5              C5       G5

e|-------------------------------------------------------------------------|
B|-------------------------------------------------------------------------|
G|--2-2-2-2-2-2-2-2-----------------------2-2-2-2-2-2-2--------------------|
D|--2-2-2-2-2-2-2-2-10-10-10-5--5--5------2-2-2-2-2-2-2--10-10-10-5--5--5--|
A|--0-0-0-0-0-0-0-0-10-10-10-5--5--5------0-0-0-0-0-0-0--10-10-10-5--5--5--|
E|------------------8--8--8--3--3--3---------------------8--8--8--3--3--3--|


============================================================================
Tap to rate this tab
# A B C D E F G H I J K L M N O P Q R S T U V W X Y Z