Song name
# A B C D E F G H I J K L M N O P Q R S T U V W X Y Z

Trash Light Vision - Screw Worm Baby tab

----------------------------------------------------------------------------
	       SCREW WORM BABY- Trashlight Vision
----------------------------------------------------------------------------

Tabbed by: Daz
Email: dariuswarr99@hotmail.com

Tuning: 1/2 Step Down

INTRO

eb|------------------------------------------------------------------------|
Bb|------------------------------------------------------------------------|
Gb|------------------------------------------------------------------------|
Db|------------------------------------------------------------------------|
Ab|------------------------4-----------------------------------------------|
Eb|-2-4----2-4----2-4----2-------------------------------------------------|

VERSE

eb|------------------------------------------------------------------------|
Bb|------------------------------------------------------------------------|
Gb|------------------------6-----------------------------------------------|
Db|-4-6----4-6----4-6----4-6-----------------------------------------------|
Ab|-4-6----4-6----4-6----4-4-------------------------5---------------------|
Eb|-2-4----2-4----2-4----2------2-4---2-4---2-4----2-----------------------|

PRE CHORUS

eb|------------------------------------------------------------------------|
Bb|------------------------------------------------------------------------|
Gb|----------------------------------------------6-6-6-6-------------------|
Db|-4----------4----------4----------4-----------6-6-6-6-------------------|
Ab|-4-6-6-6-6--4-6-6-6-6--4-6-6-6-6--4-6-6-6-6---4-4-4-4-------------------|
Eb|-2-4-4-4-4--2-4-4-4-4--2-4-4-4-4--2-4-4-4-4-----------------------------|

CHORUS

eb|------------------------------------------------------------------------|
Bb|------------------------------------------------------------------------|
Gb|----------------------------------------------6-6-6-6-------------------|
Db|-4----------4----------4----------4-----------6-6-6-6-------------------|
Ab|-4-6-6-6-6--4-6-6-6-6--4-6-6-6-6--4-6-6-6-6---4-4-4-4-------------------|
Eb|-2-4-4-4-4--2-4-4-4-4--2-4-4-4-4--2-4-4-4-4-----------------------------|

BREAKDOWN

eb|------------------------------------------------------------------------|
Bb|------------------------------------------------------------------------|
Gb|------------------------------------------------------------------------|
Db|--2----4----6-----------------------------------------------------------|
Ab|------------------------------------------------------------------------|
Eb|--0----2----4-----------------------------------------------------------|

============================================================================
Tap to rate this tab
# A B C D E F G H I J K L M N O P Q R S T U V W X Y Z