Song name
# A B C D E F G H I J K L M N O P Q R S T U V W X Y Z

Trash Talk - Fyra tab

Tuning: Drop D


|-----------------------|
|-----------------------|
|-----------------------|
|----0--6--3--5--3--2---|
|----0--6--3--5--3--2---|
|----0--6--3--5--3--2---|
     *  *  *  *  *  *


|-----------------------|
|-----------------------|
|-----------------------|
|----0--6--3--5--3--2---|
|----0--6--3--5--3--2---|
|----0--6--3--5--3--2---|

|-------------------------------|
|-------------------------------|
|-------------------------------|
|----0--6--3--5--3--2---------2-|
|----0--6--3--5--3--2---------2-|
|----0--6--3--5--3--2---------2-|
     *  *  *  *  *  *       hold
Tap to rate this tab
# A B C D E F G H I J K L M N O P Q R S T U V W X Y Z