Song name
# A B C D E F G H I J K L M N O P Q R S T U V W X Y Z

Trash Talk - Worthless Nights tab

there was some other guy that tabbed out trash talk songs off of walking disease but 
were slightly off, so here it is.

Drop D tuning, bitches!

starts with guitar ringing out
|-----------------|
|-----------------|
|-----------------|
|2~---------------|x4
|2~---------------|
|2~----2-8-5-2-5--| (figure out strumming)

|------------------|
|------------------|
|------------------|
|2-2-2-2----2~-----|
|2-2-2-2----2~-----|
|2-2-2-2----2~-----|
 FUCKING    NIGHHTTSSSSSS...FUCK!

bass plays by itself
guitar jumps in with the intro riff just slowed down

and then do this again to end it
|------------------|
|------------------|
|------------------|
|2-2-2-2----2~-----|
|2-2-2-2----2~-----|
|2-2-2-2----2~-----|


YOURE WELCOME :D
Tap to rate this tab
# A B C D E F G H I J K L M N O P Q R S T U V W X Y Z