Song name
# A B C D E F G H I J K L M N O P Q R S T U V W X Y Z

Trash Talk - Fyra tab

-------------------------------------------------------------------------------
			     F.Y.R.A - Trash Talk
-------------------------------------------------------------------------------
Tabbed by: MAdball
Email:mjstanton91@hotmail.com

Tuning: drop D

Palm Mute
e|--------------------------------------|
B|--------------------------------------|
G|--------------------------------------|
D|-0-0-0-7-7-7-3-3-3-6-6-6-4-4-4-3-3-3--|
A|-0-0-0-7-7-7-3-3-3-6-6-6-4-4-4-3-3-3--|x4
E|-0-0-0-7-7-7-3-3-3-6-6-6-4-4-4-3-3-3--|

Same thing just strummed
e|-----------------------------------------------------------------------------------|
B|-----------------------------------------------------------------------------------|
G|-----------------------------------------------------------------------------------|
D|-0-7-3-6-4-3-----------------------------------------------------------------------|
A|-0-7-3-6-4-3-----------------------------------------------------------------------|x4
E|-0-7-3-6-4-3-----------------------------------------------------------------------|

Palm Mute
e|--------------------------------|
B|--------------------------------|
G|--------------------------------|
D|-0-0-0-7-7-7-6-6-6-4-4-4-3-3-3--|
A|-0-0-0-7-7-7-6-6-6-4-4-4-3-3-3--|x4
E|-0-0-0-7-7-7-6-6-6-4-4-4-3-3-3--|

************************************

| /   slide up
| \   slide down
| h   hammer-on
| p   pull-off
| ~   vibrato
| +   harmonic
| x   Mute note
| b   Bend
| pb  Pre-bend
| br  Bend release
| pbr Pre-bend release
| brb Bend release bend

************************************
Tap to rate this tab
# A B C D E F G H I J K L M N O P Q R S T U V W X Y Z