Song name
# A B C D E F G H I J K L M N O P Q R S T U V W X Y Z

Trash Talk - Febn tab

F.E.B.N.
Trash Talk
jjjddd

Drop Db/C#

this can be played in drop d (probably easier) but i chose
half step down because ive seen other songs tabbed in it
and it just feels 'heavier' if you get me


drum and bass intro

0:22
eb|------------------------------------------------|
Bb|------------------------------------------------|
Gb|------------------------------------------------|
Db|-----------------------------------5-5----------|
Ab|-3-3-3-3-3-7-6h7-6h7-6h7-3-3-3-3-3-3-3-2-2-2-2--|
Db|-3-3-3-3-3-7-6h7-6h7-6h7-3-3-3-3-3-----2-2-2-2--|
                                                            x2
eb|-----------------------------------------------------|
Bb|-----------------------------------------------------|
Gb|-----------------------------------------------------|
Db|-----------------------------------5-5---------------|
Ab|-3-3-3-3-3-7-6h7-6h7-6h7-3-3-3-3-3-3-3-2-2-2-3-2-2-2-|
Db|-3-3-3-3-3-7-6h7-6h7-6h7-3-3-3-3-3-----2-2-2-3-2-2-2-|



eb|-------------------------------------------------|
Bb|-------------------------------------------------|
Gb|-------------------------------------------------|
Db|-------------------------------------------------| x3
Ab|-1-1-1-1-1-7-6-7-8-8-8-8-8\5-5-5-5\4-4-4-4\2-2-2-|
Db|-1-1-1-1-1-7-6-7-8-8-8-8-8\5-5-5-5\4-4-4-4\2-2-2-|

eb|---------------------------------------------------------|
Bb|---------------------------------------------------------|
Gb|---------------------------------------------------------|
Db|---------------------------------------------------------|
Ab|-1-1-1-1-1-7-6-7-8-8-8-8-8\5-5-5-5\4-4-4-4\2-2-2-3-2-2-2-|
Db|-1-1-1-1-1-7-6-7-8-8-8-8-8\5-5-5-5\4-4-4-4\2-2-2-3-2-2-2-|



eb|------------------------------------------------|
Bb|------------------------------------------------|
Gb|------------------------------------------------|
Db|-----------------------------------5-5----------|
Ab|-3-3-3-3-3-7-6h7-6h7-6h7-3-3-3-3-3-3-3-2-2-2-2--|
Db|-3-3-3-3-3-7-6h7-6h7-6h7-3-3-3-3-3-----2-2-2-2--|
                                                            x2
eb|-----------------------------------------------------|
Bb|-----------------------------------------------------|
Gb|-----------------------------------------------------|
Db|-----------------------------------5-5---------------|
Ab|-3-3-3-3-3-7-6h7-6h7-6h7-3-3-3-3-3-3-3-2-2-2-3-2-2-2-|
Db|-3-3-3-3-3-7-6h7-6h7-6h7-3-3-3-3-3-----2-2-2-3-2-2-2-|



eb|-------------------------------------------------|
Bb|-------------------------------------------------|
Gb|-------------------------------------------------|
Db|-------------------------------------------------| x3
Ab|-1-1-1-1-1-7-6-7-8-8-8-8-8\5-5-5-5\4-4-4-4\2-2-2-|
Db|-1-1-1-1-1-7-6-7-8-8-8-8-8\5-5-5-5\4-4-4-4\2-2-2-|

eb|---------------------------------------------------------|
Bb|---------------------------------------------------------|
Gb|---------------------------------------------------------|
Db|---------------------------------------------------------|
Ab|-1-1-1-1-1-7-6-7-8-8-8-8-8\5-5-5-5\4-4-4-4\2-2-2-3-2-2-2-|
Db|-1-1-1-1-1-7-6-7-8-8-8-8-8\5-5-5-5\4-4-4-4\2-2-2-3-2-2-2-|
Tap to rate this tab
# A B C D E F G H I J K L M N O P Q R S T U V W X Y Z