Song name
# A B C D E F G H I J K L M N O P Q R S T U V W X Y Z

Travail - Beaten tab

This is my second tab, so I'm kind
of new at this.

The tuning is drop D (DADGBe)
Practice this to get the rhythm down
it's not that hard to catch.

e------------------------------------
B------------------------------------
G----5---5---5---4---4---4---0---0---
D------------------------------------
A--0---0---0---0---0---0---0---0-----
D------------------------------------

The Riff continues on to this:

e-------------------------------------
B-------------------------------------
G-------------------------------------
D-----(2)slide(7)--7-----7------------
A--0-----------------0-0--------------
D-------------------------------------

This is an advanced version:
(it is also the actual riff)

e----------------------------------------------
B----------------------------------------------
G----5---5---7-5-4----4---4---4---7---7---9-7-5
D----------------------------------------------
A--0---0---0--------0---0---0---0---0---0------
D----------------------------------------------

e-----------------------------------------------------------
B-----------------------------------------------------------
G----5---5---7-5-4--4---4---4----0----0---------------------
D---------------------------------------(2)slide(7) 7-----7-
A--0---0---0------0---0---0---0----0------------------0-0---
D-----------------------------------------------------------

Then the song gets heavy. I'm not sure if this
is it, but it sounds like it.

e-----------------------------------
B-----------------------------------
G-----------------------------------
D--0--0--0--2-3-2---0---0--0--0--5--    X 4
A--0--0--0--2-3-2---0---0--0--0--5--
D--0--0--0--2-3-2---0---0--0--0--5--


e-----------------------------------------------------------
B-----------------------------------------------------------
G-----------------------------------------------------------
D--0--0--0--2-3-2--0---0--0--0--7-6--0-0-0-2-3-2-0-0-0-0-5-6
A--0--0--0--2-3-2--0---0--0--0--7-6--0-0-0-2-3-2-0-0-0-0-5-6
D--0--0--0--2-3-2--0---0--0--0--7-6--0-0-0-2-3-2-0-0-0-0-5-6

I'm not sure the song sounds higher pitched than this,
but the rhythm is the same. Give me an e-mail if you have any
corrections or such. Jimmy=     ickabod17@yahoo.com
Tap to rate this tab
# A B C D E F G H I J K L M N O P Q R S T U V W X Y Z