Song name
# A B C D E F G H I J K L M N O P Q R S T U V W X Y Z

Travie Mccoy - Billionaire tab

Artist: Travie McCoy ft. Bruno Marz
Song: Billionaire

Tabbed by: Thom Garcia (TeeGee)


**Question: How to do the strumming ?**
**Answer: Honeslty, it's up to what kind of strumming will you do.**

(This is my 2nd Tab. hehe.. hope you like it.)
 

Tuning: Standard

**TIMING IS THE KEY**

Verse:
|-----5------9------9------7-----|
|-----5------9------10-----7-----|
|-----6------10-----11-----9-----|
|-----7------9------11-----9-----|
|-----7------11-----9------7-----|
|-----5------9------9------7-----|
I wanna be a billionaire so fricking bad

Chorus:
|-----5------7------9-------|
|-----5------7------10------|
|-----7------9------11------|
|-----7------9------11------|
|-----5------7------9-------|
|-----5------7------9-------|
Every time I close my eyes
I see my name in shining lights

|-----5------7----------12----11--9--7--5-----------------------4-----|
|-----5------7----------12----11--9--7--5-----------------------5-----|
|-----7------9----------14----14--11-9--7-----------------------6-----|
|-----7------9----------14----14--11-9--7-----------------------6-----|
|-----5------7----------12----11--9--7--5-----------------------4-----|
|-----5------7----------12----11--9--7--5-----------------------4-----|
A different city every night  oh I,  I swear the world better prepare


(Rap Part: Same Chords as Verse.)

(Repeat Chorus:)

(Rap Part: Same Chords as Verse.)

(Repeat Chorus:)

|-----2------5------9-------|
|-----2------5------7-------|
|-----2------5------7-------|
|-----4------7------9-------|
|-----4------7------9-------|
|-----2------5------7-------|
oh oooh oh oooh for when I'm a Billionaire
oh oooh oh oooh for when I'm a Billionaire


|-----5------------------9-----|
|-----5------------------9-----|
|-----6------------------10----|
|-----7------------------9-----|
|-----7------------------11----|
|-----5------------------9-----|
I wanna be a billionaire so fricking bad


*Feel Free To Comment*
*Don't forget to add me here as your friend!*
Tap to rate this tab
 
# A B C D E F G H I J K L M N O P Q R S T U V W X Y Z