Song name
# A B C D E F G H I J K L M N O P Q R S T U V W X Y Z

Travie Mccoy - Superbad 1134 tab

This is my first tab but I'm sure it's right. if you hear the song you'll know how it 
and how to strum.
INTRO

e|---------------------------------------------------------------------|
B|---------------------------------------------------------------------|
G|---------------------------------------------------------------------| x7
D|---------------------------------------------------------------------|
A|-2--2-2-2/5--5-5--5-5-5----------------------------------------------|
E|-----------------------3-3-3-3-0--0-0-0-0----------------------------|

CHORUS

e|------------------------------------------------------------------------|
B|------------------------------------------------------------------------|
G|-4-4-4-4/7--7-7-7-------------------------------------------------------|x4
D|-4-4-4-4/7--7-7-7-5-5-5-2--2-2-2-2--------------------------------------|
A|-2-2-2-2/5--5-5-5-5-5-5-2--2-2-2-2--------------------------------------|
E|------------------3-3-3-0--0-0-0-0--------------------------------------|

BRIDGE

e|---------------------------------------------------------------------|
B|-12----10----7-------------------------------------------------------|
G|----11-----9---7-----------------------------------------------------|x4
D|---------------------------------------------------------------------|
A|---------------------------------------------------------------------|
E|---------------------------------------------------------------------|
Tap to rate this tab
 
# A B C D E F G H I J K L M N O P Q R S T U V W X Y Z