Travie Mccoy - Billionaire Acoustic tab

Standard tuning
This riff goes through the entire song.
/ = Slide down
(INTRO)
e|----------------------------------------------------------------------|
B|----------------------------------------------------------------------|
G|--6-6-6-6---10-10-10-10------11-11-11-11------9-9-9-9-----------------|
D|--7-7-7-7---11-11-11-11------11-11-11-11------9-9-9-9-----------------|
A|-------------------------9-----------------7--------------------------|
E|-5--------9-----------------------------------------------------------|

(CHORUS)
e|----------------------------------------------------------------------|
B|----------------------------------------------------------------------|
G|---7-7----9-9-----11-11-11-11(x2)---7-7----9-9-----14-----14---11---9-|
D|---7-7----9-9-----11-11-11-11(x2)---7-7----9-9-----14-----14---11---9-|
A|-5------7------9-------------(x2)-5-----7-------12-----11----9----7---|
E|----------------------------------------------------------------------|

e|----------------------------------------------------------------------|
B|----------------------------------------------------------------------|
G|---7-7-7-7----9-9-9/--------------------------------------------------|
D|---7-7-7-7----9-9-9/--------------------------------------------------|
A|-5----------7---------------------------------------------------------|
E|----------------------------------------------------------------------|

If you're playing this by yourself, you might want to do bar chords.

e|----5-5-5-5---9--9--9--9------9--9--9--9---7-7-7-7--------------------|
B|----5-5-5-5---9--9--9--9------10-11-11-11--9-9-9-9--------------------|
G|----6-6-6-6---10-10-10-10-----11-11-11-11--9-9-9-9--------------------|
D|----7-7-7-7---11-11-11-11-----11-11-11-11--9-9-9-9--------------------|
A|----7-7-7-7---11-11-11-11--9--9--9--9--9---7-7-7-7--------------------|
E|-5--5-5-5-5-9-9--9--9--9------x--x--x--x---x-x-x-x--------------------|

So, yeah. This is my first tab. Rate and comment? :D




Tap to rate this tab
 
# A B C D E F G H I J K L M N O P Q R S T U V W X Y Z