Song name
# A B C D E F G H I J K L M N O P Q R S T U V W X Y Z

Travie Mccoy - Billionaire tab

Play the off beat (ex: 1 and 2 and 3 and 4 -->> strum on "and")


(Verse1)
e|-----5--x--5--x--5--x--5------------9--x--9--x--9--x--9---|* 
B|-----5--x--5--x--5--x--5------------9--x--9--x--9--x--9---| *
G|-----6--x--6--x--6--x--6------------9--x--9--x--9--x--9---|  *
D|-----7--x--7--x--7--x--7------------9--x--9--x--9--x--9---|   *
A|-----7--x--7--x--7--x--7------------11-x--11-x--11-x--11--|    *
E|--5--5--x--5--x--5--x--5---~s~---9--9--x--9--x--9--x--9---|     *
                                                                   * X2
                                                                   *
e|-----9--x--9--x--9--x--9------------7--x--7--x--7--x--7---|     *
B|-----10-x--10-x--10-x--10-----------9--x--9--x--9--x--9---|    *
G|-----11-x--11-x--11-x--11-----------9--x--9--x--9--x--9---|   *
D|-----11-x--11-x--11-x--11-----------9--x--9--x--9--x--9---|  * 
A|--9--9--x--9--x--9--x--9---------7--7--x--7--x--7--x--7---| *   
E|-----x--x--x--x--x--x--x---~s~------x--x--x--x--x--x--x---|*   


(Chorus1)
e|-----5--x--5--------7--x--7------------9--x--9--x--9--x--9----| 
B|-----7--x--7--------9--x--9------------10-x--10-x--10-x--10---| 
G|-----7--x--7--------9--x--9------------11-x--11-x--11-x--11---|  X2  
D|-----7--x--7--------9--x--9------------11-x--11-x--11-x--11---|   
A|--5--5--x--5-----7--7--x--7---~s~---9--9--x--9--x--9--x--9----|    
E|-----x--x--x--------x--x--x------------x--x--x--x--x--x--x----|  


e|-----5--x--5--------7--x--7------------12------12-----9------7--| 
B|-----7--x--7--------9--x--9------------14------14-----10-----9--| 
G|-----7--x--7--------9--x--9------------14------14-----11-----9--|    ???
D|-----7--x--7--------9--x--9------------14------14-----11-----9--|   
A|--5--5--x--5-----7--7--x--7---~s~--12--12--11--11--9--9---7--7--|    
E|-----x--x--x--------x--x--x------------x-------x------x------x--|


e|-----5--x--5--x--5--x--5-----------7--x--7--x--7--x--7---9-------------|
B|-----7--x--7--x--7--x--7-----------9--x--9--x--9--x--9---10------------|
G|-----7--x--7--x--7--x--7-----------9--x--9--x--9--x--9---11-(HOLD OUT)-|
D|-----7--x--7--x--7--x--7-----------9--x--9--x--9--x--9---11------------|
A|--5--5--x--5--x--5--x--5---~s~--7--7--x--7--x--7--x--7---9-------------|
E|-----x--x--x--x--x--x--x-----------x--x--x--x--x--x--x---x-------------|
      

(Verse2)
e|-----5--x--5--x--5--x--5------------9--x--9--x--9--x--9---|* 
B|-----5--x--5--x--5--x--5------------9--x--9--x--9--x--9---| *
G|-----6--x--6--x--6--x--6------------9--x--9--x--9--x--9---|  *
D|-----7--x--7--x--7--x--7------------9--x--9--x--9--x--9---|   *
A|-----7--x--7--x--7--x--7------------11-x--11-x--11-x--11--|    *
E|--5--5--x--5--x--5--x--5---~s~---9--9--x--9--x--9--x--9---|     *
                                                                   * X3
                                                                   *
e|-----9--x--9--x--9--x--9------------7--x--7--x--7--x--7---|     *
B|-----10-x--10-x--10-x--10-----------9--x--9--x--9--x--9---|    *
G|-----11-x--11-x--11-x--11-----------9--x--9--x--9--x--9---|   *
D|-----11-x--11-x--11-x--11-----------9--x--9--x--9--x--9---|  * 
A|--9--9--x--9--x--9--x--9---------7--7--x--7--x--7--x--7---| *   
E|-----x--x--x--x--x--x--x---~s~------x--x--x--x--x--x--x---|*   


(Chorus2)
e|--5-----------------7------------------9--x--9--x--9--x--9----| 
B|--7-----------------9------------------10-x--10-x--10-x--10---| 
G|--7--(Let it Ring)--9--(Let it Ring)---11-x--11-x--11-x--11---|  X2
D|--7-----------------9------------------11-x--11-x--11-x--11---|   
A|--5-----------------7-------~s~-----9--9--x--9--x--9--x--9----|    
E|--x-----------------x------------------x--x--x--x--x--x--x----|   


e|--5-----------------7-------------------12------12-----9-----7----| 
B|--7-----------------9-------------------14------14-----10----9----| 
G|--7--(Let it Ring)--9--(Let it Ring)----14------14-----11----9----|  
D|--7-----------------9-------------------14------14-----11----9----|   
A|--5-----------------7-------~s~-----12--12--11--11--9--9--7--7----|    
E|--x-----------------x-------------------x-------x------x-----x----| 


e|-----5--x--5--x--5--x--5-----------7--x--7--x--7--x--7----------------|
B|-----7--x--7--x--7--x--7-----------9--x--9--x--9--x--9----------------|
G|-----7--x--7--x--7--x--7-----------9--x--9--x--9--x--9----------------|
D|-----7--x--7--x--7--x--7-----------9--x--9--x--9--x--9----------------|
A|--5--5--x--5--x--5--x--5---~s~--7--7--x--7--x--7--x--7----------------|
E|-----x--x--x--x--x--x--x-----------x--x--x--x--x--x--x----------------|
  

e|-----9--x--9--x--9--x--9------7--x--7--x--7--x--7---|
B|-----10-x--10-x--10-x--10-----7--x--7--x--7--x--7---|
G|-----11-x--11-x--11-x--11-----7--x--7--x--7--x--7---|  X2
D|-----11-x--11-x--11-x--11-----9--x--9--x--9--x--9---|
A|--9--9--x--9--x--9--x--9------9--x--9--x--9--x--9---|
E|-----x--x--x--x--x--x--x---7--7--x--7--x--7--x--7---|


(Verse3)
e|-----5-----------------9---------------------| 
B|-----5-----------------9---------------------| 
G|-----6--(Let it Ring)--9----(Let it Ring)----|  
D|-----7-----------------9---------------------|   
A|-----7-----------------11--------------------|    
E|-----5-----------------9---------------------|     


e|-----9--x--9--x--9--x--9------------7--x--7--x--7--x--7---|     
B|-----10-x--10-x--10-x--10-----------9--x--9--x--9--x--9---|    
G|-----11-x--11-x--11-x--11-----------9--x--9--x--9--x--9---|   
D|-----11-x--11-x--11-x--11-----------9--x--9--x--9--x--9---|   
A|--9--9--x--9--x--9--x--9---------7--7--x--7--x--7--x--7---|    
E|-----x--x--x--x--x--x--x---~s~------x--x--x--x--x--x--x---| 


e|-----5--x--5--x--5--x--5------------9--x--9--x--9--x--9---|* 
B|-----5--x--5--x--5--x--5------------9--x--9--x--9--x--9---| *
G|-----6--x--6--x--6--x--6------------9--x--9--x--9--x--9---|  *
D|-----7--x--7--x--7--x--7------------9--x--9--x--9--x--9---|   *
A|-----7--x--7--x--7--x--7------------11-x--11-x--11-x--11--|    *
E|--5--5--x--5--x--5--x--5---~s~---9--9--x--9--x--9--x--9---|     *
                                                                   * X2
                                                                   *
e|-----9--x--9--x--9--x--9------------7--x--7--x--7--x--7---|     *
B|-----10-x--10-x--10-x--10-----------9--x--9--x--9--x--9---|    *
G|-----11-x--11-x--11-x--11-----------9--x--9--x--9--x--9---|   *
D|-----11-x--11-x--11-x--11-----------9--x--9--x--9--x--9---|  * 
A|--9--9--x--9--x--9--x--9---------7--7--x--7--x--7--x--7---| *   
E|-----x--x--x--x--x--x--x---~s~------x--x--x--x--x--x--x---|* 


(Verse1)

(Chorus2)

(Ending)
e|-----5-----------------9---------------------| 
B|-----5-----------------9---------------------| 
G|-----6--(Let it Ring)--9----(Let it Ring)----|  
D|-----7-----------------9---------------------|   
A|-----7-----------------11--------------------|    
E|-----5-----------------9---------------------|     



(Verse1)
I wanna be a billionaire so freakin bad
buy all of the things I never had
I wanna be on the cover of Forbes magazine
Smilin next to Oprah and the Queen

(Chorus1)
Oh every time I close my eyes
I see my name in shining lights
Yeah, a different city every night oh I
I swear the world better prepare for when I'm a billionaire

(Verse2)
Yeah I would have a show like Oprah
I would be the host of, everyday Christmas
Give (NAME) a wish list
I'd probably pull an Angelina and Brad Pitt
And adopt a bunch of babies that ain't never had it
Give away a few Mercedes like here lady have this
And last but not least grant somebody their last wish
Its been a couple months since I've single so
You can call me (NAME) Claus minus the Ho Ho
Hehe, Get it, I'd probably visit where Katrina hit
and darn sure do a lot more than FEMA did
Yeah can't forget about me stupid
Everywhere I go Imma have my own theme music

(Chorus2)
Oh every time I close my eyes
I see my name in shining lights
A different city every night oh I
I swear the world better prepare
for when I'm a billionaire
oh oooh oh oooh for when I'm a Billionaire
oh oooh oh oooh for when I'm a Billionaire

(Verse3)
I'll be playing basketball with the President
dunking on his delegates
then I'll compliment him on his political etiquette
Toss a couple milli in the air just for the heck of it
but keep the fives, twentys, tens and bens completely separate
and yeah I'll be in a whole new tax bracket
we in recession but let me take a crack at it
I'll probably take whatevers left and just split it up
So everybody that I love can have a couple bucks
And not a single tummy around me would know what hungry was
eating good sleeping soundly
I know we all have a similar dream
go in your pocket pull out your wallet
and put it in the air and sing

(Verse1)

(Chorus2)

(Ending)
I wanna be a billionaire so frickin bad

Tap to rate this tab
 
# A B C D E F G H I J K L M N O P Q R S T U V W X Y Z