Song name
# A B C D E F G H I J K L M N O P Q R S T U V W X Y Z

Travie Mccoy - Superbad 1134 tab

Superbad
By:Travie McCoy
Tabbed by: Ha-cunha-matata
Tuning: Standard
Lead is tabbed first, then rhythm

Lead Intro/Verses: 8 bars of this until chorus (clean)
e|----------------------------------------|
B|----------------------------------------|
G|----------------------------------------|
D|----------------------------------------|
A|-2-22-2-2/5-5-55--55--------------------|
E|---------------------3-33-3-3-0-0-00-00-|

Chorus: just the powerchord version of the intro (distorted)
e|----------------------------------------|
B|----------------------------------------|
G|-4-44-4-4/7-7-77--77--------------------|
D|-4-44—4-4/7-7-77--77--5-55-5------------|
A|-2-22-2-2/5-5-55--55--5-55-5-2-2-22-22--|
E|----------------------3-33-3-0-0-00-00--|

Break “The road that I’m travelling....”(clean):
e|-----7—--(5)--------|
B|-------7-----5-7(3)-|
G|--------------------|
D|--------------------|
A|--------------------|
E|--------------------|
 
Then lead ends on:                              
e|---7~-|
B|------|
G|------|
D|------|
A|------|
E|------|

Rhythm intro/Verses (after 2 bars of lead):
e|--14--14-14-14\10--10-10-10-10-10--10-10-10-10\7-7-7-7--7-7----------------------|
B|---------------------------------------------------------------------------------|
G|---------------------------------------------------------------------------------|
D|---------------------------------------------------------------------------------|
A|---------------------------------------------------------------------------------|
E|---------------------------------------------------------------------------------|

                                        
e|-5-7--5-7--(7)--77-7-7-7-(7)-----------------------------------------------------|
B|---------------------------------------------------------------------------------|
G|---------------------------------------------------------------------------------|
D|---------------------------------------------------------------------------------|
A|---------------------------------------------------------------------------------|
E|---------------------------------------------------------------------------------|


Chorus (it was hard to tab over the lead but you can 
either play the lead chorus or this instead...I tried :p)
e|-14-14-14-14-14/17-17-17-17-17-17---12--14--10-10-10-10-10--7-10-7-10-(10)-----|
B|-------------------------------------------------------------------------------|
G|-------------------------------------------------------------------------------|
D|-------------------------------------------------------------------------------|
A|-------------------------------------------------------------------------------|
E|-------------------------------------------------------------------------------|

No break section for rhythm, and no “end note” for rhythm either. And thats it:)
Tap to rate this tab
# A B C D E F G H I J K L M N O P Q R S T U V W X Y Z