Song name
# A B C D E F G H I J K L M N O P Q R S T U V W X Y Z

Travis Garland - Didnt Stand A Chance tab

[Verse and Chorus]

e|-----2-----x-----------x-----4-----x-----------x-|
B|-----4-----x-----4-----x-----5-----x-----4-----x-|
G|-----------x-----4-----x-----------x-----2-----x-|
D|---2-------x-----------x---4-------x-----------x-|
A|-----------x---4-------x-----------x---2-------x-|
E|-----------x-----------x-----------x-----------x-|


[Bridge]

e|-----4-----x-----5-----x-----------x-----4-----x-----------x-|
B|-----5-----x-----5-----x-----4-----x-----4-----x-----2-----x-|
G|-----------x-----------x-----2-----x-----------x-----2-----x-|
D|-----------x---4-------x-----------x---2-------x-----------x-|
A|---4-------x-----------x---2-------x-----------x---0-------x-|
E|-----------x-----------x-----------x-----------x-----------x-|

e|-----------x-----------x-|
B|-----2-----x-----4-----x-|
G|-----2-----x-----2-----x-|
D|-----------x-----------x-|
A|-----------x---2-------x-|
E|---2-------x-----------x-|
Tap to rate this tab
 
# A B C D E F G H I J K L M N O P Q R S T U V W X Y Z