Song name
# A B C D E F G H I J K L M N O P Q R S T U V W X Y Z

Travis Mccoy - Billionaire tab

Title: Billionaire
Artist: Travie McCoy & Bruno Mars
Tempo = 85
Guitar
Standard Tuning

Legend
x - dead note

This is exported from my .gpx file:


Intro x2 (I wanna be a billionaire... & I wanna be on the cover of Forbes magazine...)

E ||----6--x--6-----6--x--6----|-----5--x--5-----5--x--5----|
B ||----6--x--6-----6--x--6----|-----7--x--7-----7--x--7----|
G ||----7--x--7-----7--x--7----|-----5--x--5-----5--x--5----|
D ||-------x-----------x-------|--------x-----------x-------|
A ||-------x-----------x-------|--5-----x-----------x-------|
E ||-6-----x-----------x-------|--------x-----------x-------|


-----10-x--10----10-x--10---|-----8--x--8-----8--x--8---|||
-----11-x--11----11-x--11---|-----10-x--10----10-x--10--|||
-----12-x--12----12-x--12---|-----10-x--10----10-x--10-o|||
--------x-----------x-------|--------x-----------x-----o|||
--10----x-----------x-------|--8-----x-----------x------|||
--------x-----------x-------|--------x-----------x------|||

Verse x2 (Oh everytime I close my eyes...)

-------x-----------x-------|--------x-----------x------||
----8--x--8-----10-x--10---|-----11-x--11----11-x--11--||
----8--x--8-----10-x--10---|-----12-x--12----12-x--12-o||
----8--x--8-----10-x--10---|-----12-x--12----12-x--12-o||
-6-----x-----8-----x-------|--10----x-----------x------||
-------x-----------x-------|--------x-----------x------||

Verse (A different city every night...)

--------x-----------x-------|----------------------------|
-----8--x--8-----10-x--10---|-----15----15----11----10---|
-----8--x--8-----10-x--10---|-----15----15----12----10---|
-----8--x--8-----10-x--10---|-----15----15----12----10---|
--6-----x-----8-----x-------|--13----12----10----8-------|
--------x-----------x-------|----------------------------|


--------x-----------x-------|-----5--x--5-----5--x--5----|----||
-----8--x--8-----8--x--8----|-----7--x--7-----7--x--7----|----||
-----8--x--8-----8--x--8----|-----5--x--5-----5--x--5----|----||
-----8--x--8-----8--x--8----|--------x-----------x-------|----||
--6-----x-----------x-------|--5-----x-----------x-------|----||
--------x-----------x-------|--------x-----------x-------|----||

Rapping/Intro x8

----6--x--6-----6--x--6----|-----5--x--5-----5--x--5----|
----6--x--6-----6--x--6----|-----7--x--7-----7--x--7----|
----7--x--7-----7--x--7----|-----5--x--5-----5--x--5----|
-------x-----------x-------|--------x-----------x-------|
-------x-----------x-------|--5-----x-----------x-------|
-6-----x-----------x-------|--------x-----------x-------|


-----10-x--10----10-x--10---|-----8-----8-----8--x--8---|||
-----11-x--11----11-x--11---|-----10----10----10-x--10--|||
-----12-x--12----12-x--12---|-----10----10----10-x--10-o|||
--------x-----------x-------|--------------------x-----o|||
--10----x-----------x-------|--8-----------------x------|||
--------x-----------x-------|--------------------x------|||

Verse x2

-------x-----------x-------|--------x-----------x------||
----8--x--8-----10-x--10---|-----11-x--11----11-x--11--||
----8--x--8-----10-x--10---|-----12-x--12----12-x--12-o||
----8--x--8-----10-x--10---|-----12-x--12----12-x--12-o||
-6-----x-----8-----x-------|--10----x-----------x------||
-------x-----------x-------|--------x-----------x------||

Verse

--------x-----------x-------|----------------------------|
-----8--x--8-----10-x--10---|-----15----15----11----10---|
-----8--x--8-----10-x--10---|-----15----15----12----10---|
-----8--x--8-----10-x--10---|-----15----15----12----10---|
--6-----x-----8-----x-------|--13----12----10----8-------|
--------x-----------x-------|----------------------------|


--------x-----------x-------|-----5--x--5-----5--x--5----||
-----8--x--8-----8--x--8----|-----7--x--7-----7--x--7----||
-----8--x--8-----8--x--8----|-----5--x--5-----5--x--5----||
-----8--x--8-----8--x--8----|--------x-----------x-------||
--6-----x-----------x-------|--5-----x-----------x-------||
--------x-----------x-------|--------x-----------x-------||

Bridge x2 (Oh... Oh...)

-------x--------6--x--6----|--------x------------------|||
----3--x--3-----6--x--6----|-----8--x--8-----8-----8---|||
----3--x--3-----7--x--7----|-----8--x--8-----8-----8--o|||
----3--x--3--------x-------|-----8--x--8-----8-----8--o|||
-------x-----------x-------|--------x-----------8------|||
-3-----x-----6-----x-------|--8-----x-----8------------|||

Rapping/Intro x8

----6--x--6-----6--x--6----|-----5--x--5-----5--x--5----|
----6--x--6-----6--x--6----|-----7--x--7-----7--x--7----|
----7--x--7-----7--x--7----|-----5--x--5-----5--x--5----|
-------x-----------x-------|--------x-----------x-------|
-------x-----------x-------|--5-----x-----------x-------|
-6-----x-----------x-------|--------x-----------x-------|


-----10-x--10----10-x--10---|-----8--x--8-----8--x--8---|||
-----11-x--11----11-x--11---|-----10-x--10----10-x--10--|||
-----12-x--12----12-x--12---|-----10-x--10----10-x--10-o|||
--------x-----------x-------|--------x-----------x-----o|||
--10----x-----------x-------|--8-----x-----------x------|||
--------x-----------x-------|--------x-----------x------|||

Verse x2

-------x-----------x-------|--------x-----------x------||
----8--x--8-----10-x--10---|-----11-x--11----11-x--11--||
----8--x--8-----10-x--10---|-----12-x--12----12-x--12-o||
----8--x--8-----10-x--10---|-----12-x--12----12-x--12-o||
-6-----x-----8-----x-------|--10----x-----------x------||
-------x-----------x-------|--------x-----------x------||

Verse

--------x-----------x-------|----------------------------|
-----8--x--8-----10-x--10---|-----15----15----11----10---|
-----8--x--8-----10-x--10---|-----15----15----12----10---|
-----8--x--8-----10-x--10---|-----15----15----12----10---|
--6-----x-----8-----x-------|--13----12----10----8-------|
--------x-----------x-------|----------------------------|


--------x-----------x-------|-----5--x--5-----5--x--5----||
-----8--x--8-----8--x--8----|-----7--x--7-----7--x--7----||
-----8--x--8-----8--x--8----|-----5--x--5-----5--x--5----||
-----8--x--8-----8--x--8----|--------x-----------x-------||
--6-----x-----------x-------|--5-----x-----------x-------||
--------x-----------x-------|--------x-----------x-------||

Bridge x2

-------x--------6--x--6----|--------x------------------||--6----|--5----|
----3--x--3-----6--x--6----|-----8--x--8-----8-----8---||--6----|--7----|
----3--x--3-----7--x--7----|-----8--x--8-----8-----8--o||--7----|--5----|
----3--x--3--------x-------|-----8--x--8-----8-----8--o||--x----|--x----|
-------x-----------x-------|--------x-----------8------||--x----|--5----|
-3-----x-----6-----x-------|--8-----x-----8------------||--6----|-------|

I wanna be a billionaire...

|--6----|--5----|
|--6----|--7----|
|--7----|--5----|
|--x----|--x----|
|--x----|--5----|
|--6----|-------|
Tap to rate this tab
# A B C D E F G H I J K L M N O P Q R S T U V W X Y Z