Travis Mccoy - Billionaire tab

BILLIONAIRE by Travis McCoy feat. Bruno Mars

Intro
  i wanna be a billionaire      so fucking bad
e---------------------------------------------------------------------------|
B---------------------------------------------------------------------------|
G----6--------6---6--------6----------10--------10---10--------10-----------|
D----7---7---7---7----------11---11---11---11-----------|
A----7--------7---7--------7----------11--------11---11--------11-----------|
E--5-------------------------------9----------------------------------------|


  buy all of the things            i never had
e---------------------------------------------------------------------------|
B-----10--------10---10--------10-------------------------------------------|
G-----11---11---11---11--------9---------9---9--------------------|
D-----11--------11---11--------11--------9----9---9---------------|
A--9----------------------------------7-------------------------------------|
E---------------------------------------------------------------------------|


   i wanna be on the cover of      forbes magazine 
e---------------------------------------------------------------------------|
B---------------------------------------------------------------------------|
G----6--------6---6--------6----------10--------10---10--------10-----------|
D----7---7---7---7----------11---11---11---11-----------|
A----7--------7---7--------7----------11--------11---11--------11-----------|
E--5-------------------------------9----------------------------------------|


   smiling next to oprah              and the queens
e---------------------------------------------------------------------------|
B-----10--------10---10--------10-------------------------------------------|
G-----11---11---11---11--------9---------9---9--------------------|
D-----11--------11---11--------11--------9----9---9---------------|
A--9----------------------------------7-------------------------------------|
E---------------------------------------------------------------------------|



Chorus

  Oh every time         I close                   my eyes
e---------------------------------------------------------------------------|
B---------------------------------------------------------------------------|
G------7------7------------9------9------------11-------11-------11-----11--|
D------7------7------------9------9------------11-------11-------11-----11--|
A---5------5------------7------7-----------9--------9---------9------9------|
E---------------------------------------------------------------------------|


   I see my name         in shining              lights
e---------------------------------------------------------------------------|
B---------------------------------------------------------------------------|
G------7------7------------9------9------------11-------11-------11-----11--|
D------7------7------------9------9------------11-------11-------11-----11--|
A---5------5------------7------7-----------9--------9---------9------9------|
E---------------------------------------------------------------------------|

  A different       city every                night            oh        I
e---------------------------------------------------------------------------|
B---------------------------------------------------------------------------|
G------7------7------------9------9--------------13-------13------11----11--|
D------7------7------------9------9--------------13-------13------11----11--|
A---5------5------------7------7------------11--------11--------9----9------|
E---------------------------------------------------------------------------|


   I swear    the world   better prepare  for when I'm a billionaire
e---------------------------------------------------------------------------|
B---------------------------------------------------------------------------|
G------7------7------7------7--------9------9-------9-------9---------------|
D------7------7------7------7--------9------9-------9-------9---------------|
A---5------5------5------5--------7------7-------7-------7------------------|
E---------------------------------------------------------------------------|


 Just end it with 
e---------------|
B---------------|
G----6----------|
D----7----------|
A----7----------|
E--5------------|



or you could just start all over again from the intro! 
I know there might be mistakes just email me up!
and sorry for the mistakes!
khairul.aliffi@live.co.uk
Thanks!
Tap to rate this tab
 
# A B C D E F G H I J K L M N O P Q R S T U V W X Y Z