Song name
# A B C D E F G H I J K L M N O P Q R S T U V W X Y Z

Travis Mccoy - Billionaire chords

Highlighted       Show chord diagrams
-------------------------------------------------------------------------------
			     Billionaire - Travis Mccoy
-------------------------------------------------------------------------------
Tabbed by: Enigma65
Email: enigma65@nospamcox.net

Tuning: Standard EADGBE

I see everyone has the wrong chords down... so here are the right chords. Real 
simple bules/funk progression:

Intro/Verse
    A                C#7                 F#m                  E           (3x)

e|--5----------------4-------------------9--------------------7--------------|
B|--5----------------4---6---------------9-10-----------------7---9----------|
G|--5-6--------------4-------------------9----11--------------7---9----------|
D|--5---7------------4---6---------------9----11--------------7---9----------|
A|--5---7------------4-------------------9--------------------7--------------|
E|--5----------------x-------------------x--------------------x--------------|

Chorus (part 1)
    D                E                   F#m                              (2x)

e|--5----------------7-------------------9-----------------------------------|
B|--5---7------------7---9---------------9-10--------------------------------|
G|--5---7------------7---9---------------9----11-----------------------------|
D|--5---7------------7---9---------------9----11-----------------------------|
A|--5----------------7-------------------9-----------------------------------|
E|--x----------------x-------------------x-----------------------------------|

Chorus (part 2)
    D                E                   A         E        F#m       E

e|--5----------------7------------------|5--------|7-------|9--------|7------|
B|--5---7------------7---9--------------|5--------|7---9---|9-10-----|7-9----|
G|--5---7------------7---9--------------|5-6------|7---9---|9----11--|7-9----|
D|--5---7------------7---9--------------|5---7----|7---9---|9----11--|7-9----|
A|--5----------------7------------------|5---7----|7-------|9--------|7------|
E|--x----------------x------------------|5--------|x-------|x--------|x------|

Chorus (part 3)
    D                                    C#7

e|--5------------------------------------4-----------------------------------|
B|--5---7--------------------------------4---6-------------------------------|
G|--5---7--------------------------------4-----------------------------------|
D|--5---7--------------------------------4---6-------------------------------|
A|--5------------------------------------4-----------------------------------|
E|--x------------------------------------x-----------------------------------|

(ooooh,oh part)
F#m Bm (2x)

e|--9------------------------------------7-----------------------------------|
B|--9-10---------------------------------7-----------------------------------|
G|--9----11------------------------------7-----------------------------------|
D|--9----11------------------------------7---9-------------------------------|
A|--9------------------------------------7---9-------------------------------|
E|--x------------------------------------7-----------------------------------|
Tap to rate this tab
 
# A B C D E F G H I J K L M N O P Q R S T U V W X Y Z