Song name
# A B C D E F G H I J K L M N O P Q R S T U V W X Y Z

Travis Mccoy - Billionaire tab

Billionaire- Travie Mccoy ft. Bruno Mars
x- palm mute
it's my first tab. sorry if their are mistakes!


 I wanna be a billionaire so freakin bad

     A                      C#7                   
E|----0--x--0--0--x--0------0--x--0--0--x--0--------------|
B|----2--x--2--2--x--2------5--x--5--5--x--5--------------|
G|----2--x--2--2--x--2------6--x--6--6--x--6--------------|
D|-------x--------x------------x--------x-----------------|
A|-0-----x--------x-------4----x--------x-----------------|
E|-------x--------x------------x--------x-----------------|

  Buy all of the things I never had

   F#m                      E
E|--2--x--2--2--x--2------0--x--0--0--x--0----------------|
B|--2--x--2--2--x--2------0--x--0--0--x--0----------------|
G|--2--x--2--2--x--2------1--x--1--1--x--1----------------|
D|-----x--------x------------x--------x-------------------|
A|-----x--------x------------x--------x-------------------|
E|-2---x--------x-------0----x--------x-------------------|

     I wanna be on the cover of Forbes magazine

     A                      C#7                   
E|----0--x--0--0--x--0------0--x--0--0--x--0--------------|
B|----2--x--2--2--x--2------5--x--5--5--x--5--------------|
G|----2--x--2--2--x--2------6--x--6--6--x--6--------------|
D|-------x--------x------------x--------x-----------------|
A|-0-----x--------x-------4----x--------x-----------------|
E|-------x--------x------------x--------x-----------------|

  Smilin' next to Oprah and the Queen

   F#m                      E
E|--2--x--2--2--x--2------0--x--0--0--x--0----------------|
B|--2--x--2--2--x--2------0--x--0--0--x--0----------------|
G|--2--x--2--2--x--2------1--x--1--1--x--1----------------|
D|-----x--------x------------x--------x-------------------|
A|-----x--------x------------x--------x-------------------|
E|-2---x--------x-------0----x--------x-------------------|

    Oh every time i close my eyes

   D           E             F#m
E|---2--x--2----0--x--0----2--x--2--2--x--3--------------|
B|---3--x--3----0--x--0----2--x--2--2--x--3--------------|
G|---2--x--2----1--x--1----2--x--2--2--x--3--------------|
D|-0----x----------x----------x--------x-----------------|
A|------x----------x----------x--------x-----------------|
E|------x-----0----x-----2----x--------x-----------------|

    I see my name in shining lights

   D           E             F#m
E|---2--x--2----0--x--0----2--x--2--2--x--3--------------|
B|---3--x--3----0--x--0----2--x--2--2--x--3--------------|
G|---2--x--2----1--x--1----2--x--2--2--x--3--------------|
D|-0----x----------x----------x--------x-----------------|
A|------x----------x----------x--------x-----------------|
E|------x-----0----x-----2----x--------x-----------------|

  A different city every  night  oh   I  I
   D           E           A         F#m
E|---2--x--2----0--x--0----0--x--0----2--x--2----------|
B|---3--x--3----0--x--0----2--x--2----2--x--2----------|
G|---2--x--2----1--x--1----2--x--2----2--x--2----------|
D|-0----x----------x----------x----------x-------------|
A|------x----------x-----0----x----------x-------------|
E|------x-----0----x----------------2------------------|




 Swear, the world better prepare for when i'm a billion-

  D                        E
E|---2--x--2--2--x--2-----0--x--0--0--x--0----------------|
B|---3--x--3--3--x--3-----0--x--0--0--x--0----------------|
G|---2--x--2--2--x--2-----1--x--1--1--x--1----------------|
D|-0----x--------x-----------x--------x-------------------|
A|------x--------x-----------x--------x-------------------|
E|------x--------x------0----x--------x-------------------|

  aire.

  F#m
E|--2-------|
B|--2-------|
G|--2-------|
D|--4-------|
A|--4-------|
E|--2-------|


Same chord progression throughout the whole song :)
Tap to rate this tab
 
# A B C D E F G H I J K L M N O P Q R S T U V W X Y Z