Song name
# A B C D E F G H I J K L M N O P Q R S T U V W X Y Z

Travis Mccoy - Billionaire Acoustic tab

Billionaire ft. Bruno Mars - Travie McCcoy

I WANTED A FULL SONG TABS :3

    A    C#7   F#m    E     D   F#m**   B    A**    A/Ab   C#/G#
e|--5-----9-----9-----7-----5-----2-----7-----12-----12-----4-----|
B|--5-----9----10-----9-----7-----2-----7-----14-----14-----6-----|
G|--6----10----11-----9-----7-----2-----8-----14-----14-----6-----|
D|--7-----9----11-----9-----7-----4-----9-----14-----14-----6-----|
A|--7----11-----9-----7-----5-----4-----9-----12-----11-----4-----|
E|--5-----9-----x-----x-----x-----2-----7------x------x-----4-----|



Bass notes played with thumb, last 3 played with other 3 fingers
And all of these are barre chords, i just put the 3 strings you actually play.
(All lines of xs are palm mutes)



     1.   I  wanna be a billionaire  so freakin  baad          By all of the things   I  never
     2. I wanna be on the cover of  Forbes magazine	     Smilin next to oprah and the
      A			    C#7			     F#m
E|---5--x--5----5--x--5-----4--x--4-----4--x--4-----9---x--9-----9---x--9--|
B|---5--x--5----5--x--5-----6--x--6-----6--x--6-----10--x--10----10--x--10-|
G|---6--x--6----6--x--6-----4--x--4-----4--x--4-----11--x--11----11--x--11-|
D|------x----------x-----------x-----------x------------x------------x-----|
A|------x----------x------4----x-----------x-----9------x------------x-----|
E|-5----x----------x-----------x-----------x------------x------------x-----|

Had
queen
  E
---7--x--7-----7--x--7-------------|
---9--x--9-----9--x--9-------------|
---9--x--9-----9--x--9------------o|
------x-----------x----------------| (x2)
-7----x-----------x---------------o|
------x-----------x----------------|


  Every    time   I   close  my eyes (watcha see watcha see)
  I  see my name in shining lights  (yeah what else?)

   D	      E           F#m
|------x-----------x------------x--------------x--------|
|---7--x--7-----9--x--9-----9---x--9-------9---x--9-----|
|---7--x--7-----9--x--9-----10--x--10------10--x--10---o|
|---7--x--7-----9--x--9-----11--x--11------11--x--11----|(x2)
|-5----x-----7-----x-----9------x--------------x-------o|
|------x-----------x------------x--------------x--------|


  A   different       city  every night I  swear the      world     better

   D	      E            A	  G#/A    F#m   E    D
|------x-----------x-----------------------------------x-------x----|
|---7--x--7-----9--x--9------14-----14----9-----9----7-x-7---7-x-7--|
|---7--x--7-----9--x--9------14-----14----10----9----7-x-7---7-x-7--|
|---7--x--7-----9--x--9------14-----14----11----9----7-x-7---7-x-7--|
|-5----x------7----x------12-----11-----9-----7----5---x-------x----|
|------x-----------x-----------------------------------x-------x----|


Prepare for when Im a billionare
  C#7               A
-----x--------x------------------------------------|
---4-x-4----4-x-4----------------------------------|
---6-x-6----6-x-6----------------------------------|
---4-x-4----4-x-4----------------------------------|
-4---x--------x------------------------------------|
-----x--------x------------------------------------|




                         A
     Yeah I would have a show like Oprah
                              C#7
     I would be the host of, everyday Christmas, give Travie a wish list
   F#m
     Id probably pull an Angelina and Brad Pitt
          E
     and adopt a bunch of babies that ain't never had s**t
          A
     give away a few Mercedes like here lady have this
         C#7
     and last but not least grant somebody their last wish
        F#m
     its been a couple months since I've single so
     E
     you can call me Travie Claus minus the Ho Ho
       A
     get it, I'd probably visit where Katrina hit
         C#7
     and damn sure do a lot more than FEMA did
    F#m
     yeah can't forget about me stupid
          E
     everywhere I go Imma have my own theme music




  Every    time   I   close  my eyes (watcha see watcha see)
  I  see my name in shining lights  (yeah what else?)


   D	      E           F#m
|------x-----------x------------x--------------x--------|
|---7--x--7-----9--x--9-----9---x--9-------9---x--9-----|
|---7--x--7-----9--x--9-----10--x--10------10--x--10---o|
|---7--x--7-----9--x--9-----11--x--11------11--x--11----|(x2)
|-5----x-----7-----x-----9------x--------------x-------o|
|------x-----------x------------x--------------x--------|


  A   different       city  every night I  swear the      world     better

   D	      E            A	  G#/A    F#m   E    D
|------x-----------x-----------------------------------x-------x----|
|---7--x--7-----9--x--9------14-----14----9-----9----7-x-7---7-x-7--|
|---7--x--7-----9--x--9------14-----14----10----9----7-x-7---7-x-7--|
|---7--x--7-----9--x--9------14-----14----11----9----7-x-7---7-x-7--|
|-5----x------7----x------12-----11-----9-----7----5---x-------x----|
|------x-----------x-----------------------------------x-------x----|


Prepare for when Im a billionare
  C#7               A
-----x--------x------------------------------------|
---4-x-4----4-x-4----------------------------------|
---6-x-6----6-x-6----------------------------------|
---4-x-4----4-x-4----------------------------------|
-4---x--------x------------------------------------|
-----x--------x------------------------------------|


Ohhh whoah ooh whaoh (when im a billionaire)...
-----x--------x--------x-------x----------------------|
---2-x-2----3-x-3----7-x-7---7-x-7--------------------|
---2-x-2----4-x-4----7-x-7---7-x-7--------------------|
---2-x-2----5-x-5----7-x-7---7-x-7--------------------|  X2
-----x--------x--------x-------x----------------------|
-2---x----5---x----7---x-------x----------------------|




[Verse 2]

                           A
     I'll be playing basketball with the President, dunking on his delegates
   C#7
     then I'll compliment him on his political etiquette
    F#m
     toss a double milli in the air just for the heck of it
        E
     but keep the fives, twentys, tens, and bens completely separate
         A
     and yeah I'll be in a whole new tax bracket
    C#7
     we in recession but let me take a crack at it
    F#m
     I'll probably take whatever's left and just split it up
       E
     so everybody that I love can have a couple bucks
        A                                                                C#7
     and not a single tummy around me would know what hungry was, eating good, sleeping soundly
   F#m
     I know we all have a similar dream
               E
     go in your pocket pull out your wallet

     and put it in the air and sing



     1.   I  wanna be a billionaire  so freakin  baad          By all of the things   I  never
     2. I wanna be on the cover of  Forbes magazine	     Smilin next to oprah and the
      A			    C#7			     F#m
E|---5--x--5----5--x--5-----4--x--4-----4--x--4-----9---x--9-----9---x--9--|
B|---5--x--5----5--x--5-----6--x--6-----6--x--6-----10--x--10----10--x--10-|
G|---6--x--6----6--x--6-----4--x--4-----4--x--4-----11--x--11----11--x--11-|
D|------x----------x-----------x-----------x------------x------------x-----|
A|------x----------x------4----x----------x-----9------x------------x-----|
E|-5----x----------x-----------x-----------x------------x------------x-----|

Had
queen
  E
---7--x--7-----7--x--7-------------|
---9--x--9-----9--x--9-------------|
---9--x--9-----9--x--9------------o|
------x-----------x----------------| (x2)
-7----x-----------x---------------o|
------x-----------x----------------|


  Every    time   I   close  my eyes (watcha see watcha see)
  I  see my name in shining lights  (yeah what else?)

   D	      E           F#m
|------x-----------x------------x--------------x--------|
|---7--x--7-----9--x--9-----9---x--9-------9---x--9-----|
|---7--x--7-----9--x--9-----10--x--10------10--x--10---o|
|---7--x--7-----9--x--9-----11--x--11------11--x--11----|(x2)
|-5----x-----7-----x-----9------x--------------x-------o|
|------x-----------x------------x--------------x--------|


  A   different       city  every night I  swear the      world     better

   D	      E            A	  G#/A    F#m   E    D
|------x-----------x-----------------------------------x-------x----|
|---7--x--7-----9--x--9------14-----14----9-----9----7-x-7---7-x-7--|
|---7--x--7-----9--x--9------14-----14----10----9----7-x-7---7-x-7--|
|---7--x--7-----9--x--9------14-----14----11----9----7-x-7---7-x-7--|
|-5----x------7----x------12-----11-----9-----7----5---x-------x----|
|------x-----------x-----------------------------------x-------x----|


Prepare for when Im a billionare
  C#7               A
-----x--------x------------------------------------|
---4-x-4----4-x-4----------------------------------|
---6-x-6----6-x-6----------------------------------|
---4-x-4----4-x-4----------------------------------|
-4---x--------x------------------------------------|
-----x--------x------------------------------------|


Ohhh whoah ooh whaoh (when im a billionaire)...
-----x--------x--------x-------x----------------------|
---2-x-2----3-x-3----7-x-7---7-x-7--------------------|
---2-x-2----4-x-4----7-x-7---7-x-7--------------------|
---2-x-2----5-x-5----7-x-7---7-x-7--------------------|  X2
-----x--------x--------x-------x----------------------|
-2---x----5---x----7---x-------x----------------------|

thanks :]
Tap to rate this tab
 
# A B C D E F G H I J K L M N O P Q R S T U V W X Y Z