Song name
# A B C D E F G H I J K L M N O P Q R S T U V W X Y Z

Travis Tritt - Great Day To Be Alive tab

This one's for the Travis Tritt fans out there. This is the banjo/violin
solo for the guitar. The notes are almost all correct, maybe a few more
hammer ons or slides in some places. You'll have to listen to the song a
few times to get the timing right.. HAVE FUN playing along with this great
song.. and have A GREAT DAY!!! CUZ IT'S A GREAT DAY TO BE ALIVE....

AHOOOOOOOOOOOOOOO......


e------------------------------------------------------------|
b-----------------12-----------------------------------------|
g----------12--14----14--12--14--12----------------------12--|
d--12--14----------------------------14--12-12---12--14------|
a------------------------------------------------------------|
e------------------------------------------------------------|

e------------------------------------------------------------|
b-----------------12-----------------------------------------|
g--14-14-14---14------14--12-----------------------12--14/16-|
d-----------------------------14--12--14---12--14------------|
a------------------------------------------------------------|
e------------------------------------------------------------|

e------------------------------------------------------------|
b--15-15------15-17-15---------------------------------------|
g---------16------------16--14--14h16p14--12--14--14--16-----|
d------------------------------------------------------------|
a------------------------------------------------------------|
e------------------------------------------------------------|

e------------------------------------------------------------|
b------------------------------------------------------------|
g--14--12------------------12--14--12------------------------|
d----------14--12--12--14------------------------------------|
a------------------------------------------------------------|
e------------------------------------------------------------|
Tap to rate this tab
 
# A B C D E F G H I J K L M N O P Q R S T U V W X Y Z