Song name
# A B C D E F G H I J K L M N O P Q R S T U V W X Y Z

Travis - Distance tab

The DIstance solo by travis


e|--------------------------------------------------------------------------|
B|---15-15-14-15-12--12-10----10--12-10----10----10--12-12-12-10------------|
G|-------------------------12-----------11----11-----------------12---------|
D|--------------------------------------------------------------------------|
A|--------------------------------------------------------------------------|
E|--------------------------------------------------------------------------|


e|--------------------------------------------------------------------------|
B|---15-15-14-15-12--12-10----10--12-10----10----10--12-12-12-10------------|
G|-------------------------12-----------11----11-----------------12--11-----|
D|--------------------------------------------------------------------------|
A|--------------------------------------------------------------------------|
E|--------------------------------------------------------------------------|
Tap to rate this tab
# A B C D E F G H I J K L M N O P Q R S T U V W X Y Z