Song name
# A B C D E F G H I J K L M N O P Q R S T U V W X Y Z

Travis - Closer tab

Song:Closer
Album:The Boy With No Name
Artist:Travis
Date Tabbed:May,2007
Guitar Tabber:Ryan Manongdo/17/m/Montalban Rizal
              no_falter0x@yahoo.com(Friendster&YM)
              
For your questions or suggestions,just post in friendster comment,PM or mail me.

Gtr.Legends:
~ - let it ring
/ - slide

Gtr.Capo:4th Fret

Gtr.Tuning:Standard(Normal)

Intro
Gtr.1
e|-----------------------------------|
B|-1111111-1111111-33333--------00---|
G|-2222222-2222222-22222-333333-22---|
D|-3333333-2222222-00000-333333-33---|
A|-----------------------111111-11---|
E|-----------------------------------|

Gtr.2 Enters
e|---------------------|
B|-----8~--------------|
G|-7~------7~--7/10~---|
D|---------------------|
A|---------------------|
E|---------------------|

Verse:I've had enough... 
Gtr.1:Play Intro

Gtr.2 Enters:
e|-5~~---6~~----8~~---------------------|
B|-----------------------88-------------|
G|---------------------------8-8/10~~---|
D|--------------------------------------|
A|--------------------------------------|
E|--------------------------------------|

Pre-Chorus:And when I see you...
e|------------------------------------|
B|-11111-------11111-------11111111---|
G|-00000-------00000-------00000000---|
D|-22222-33333-22222-33333-22222222---|
A|-33333-33333-33333-33333-33333333---|
E|-------11111-------11111------------|

Chorus:Just need to get...
Gtr.1:Play Intro

Gtr.2
e|---------12-8----------8--10--8---|
B|-10---12------8-10~---------------|
G|---------------------7------------| 2x
D|----------------------------------| 
A|----------------------------------|
E|----------------------------------|

Verse 2:Keep waking up...
Play Intro

Reapeat Pre-Chorus:

Repeat Chorus:

Bridge:
Gtr.1:Play Intro

Gtr.2
e|------------8------------------------|
B|-8-10~~---6---8~-----8--------6~~~---|
G|-------------------7---7~---5--------|
D|-------------------------------------|
A|-------------------------------------|
E|-------------------------------------|

Repeat Pre-Chorus:

Repeat Chorus:

Repeat Bridge:


End...


Closer Lyrics:

Verse:
I've had enough, of this parade.
I'm thinking of, the words to say.
We open up, unfinished parts,
Broken up, its so mellow.

Pre Chorus:
And when I see you then I know it will be next to me
And when I need you then I know you will be there with me
Ill never leave you...

Chorus:
Just need to get closer, closer,
Lean on me now,
Lean on me now,
closer, closer,

Lean on me now,
Lean on me now.

Verse 2:
Keep waking up (waking up), without you here (without you here).
Another day (another day), another year (another year).
I seek the truth (seek the truth), we set apart (we set apart)
Thinking of a second chance (a second chance).

Repeat Chorus:

Chorus:
Just need to get closer, closer,
Lean on me now,
Lean on me now,
closer, closer,
Lean on me now,
Lean on me now (lean on me now).

Repeat Pre-Chorus:

Just need to be closer, closer,
Lean on me now,
Lean on me now,
closer, closer,
Lean on me now,
Lean on me now (lean on me now).

closer, closer... closer, closer.

Tap to rate this tab
 
# A B C D E F G H I J K L M N O P Q R S T U V W X Y Z