Guitaretab - guitar tabs
Song name
# A B C D E F G H I J K L M N O P Q R S T U V W X Y Z

Travis - Re-offender tab

Travis Re-Offender

Intro:

|-----------------------------------------------------|
|---0--0--3-3-----0--0-0-0----------3-3----0--0--0----|
|-4--------4-4--2-------2-2----0--0--4-4--2-----2-2---|
|----------------------------5------------------------|
|-----------------------------------------------------|
|-----------------------------------------------------|(times 2)
[ Tab from: http://www.guitaretab.com/t/travis/26085.html ]
Verse:
|---------2-2--------0--0------0-0---------0-0--------|
|---0--0---0-0----0----0-0----0-0-0------0--0-0-------|
|-4-------------2--------------------1-2--------------|
|---------------------------5-------------------------|
|-----------------------------------------------------|
|-----------------------------------------------------| (times 2)
    Em           A
but im fooling myself
   Em        A
im fooling myself


Chorus:

        Bm           G                 Em                G
Cos you say you love me, But you do it again, you do it again
        Bm          G                   Em              G 
and you say your sorry, but you do it again, you do it again


(repeat verse and chorus)


interlude is just the intro and verse played again


chorus repeated twice with words, once without


outro:

|----------------------|
|---0--0--3-3-----0--0-|
|-4--------4-4--2------|
|----------------------|
|----------------------|
|----------------------|

Order of the song:
intro
verse
chorus
verse
chorus
interlude
chorus times 3 (once without words)
outro
Related for Re-offender tab
Advertisement will be closed in 10 seconds