Song name
# A B C D E F G H I J K L M N O P Q R S T U V W X Y Z

Travis - When Im Feeling Blue tab

-------------------------------------------------------------------------------
		When I'm feeling blue - Travis
-------------------------------------------------------------------------------
Tabbed by: DaveOe
Email: losdavos@web.de

Tuning: Standard


I think it's written in fis-minor.

The fingering may be tricky in the beginning, 
try to find one that is most convenient for you.
Play with alternate picking.


[Verse 1] 

e|--------------------------------------------------------------------------|
B|------5-------5-------5---------------3-----5---------3-----5-------------|
G|----6---6---6---5---6---5---5---5---2---2-----4-----2---2-----4-----------|
D|--7-------6-------3-------6---7---4-------6-----6-4-------6-----6---------|
A|--------------------------------------------------------------------------|
E|--------------------------------------------------------------------------|
When I'm feeling blue              I close my eyes, think of you.   
Standing by a pool                 I hope that you remember too 


[Bridge 1]

e|--------------------------------------------------------------------------|
B|--------9-------9-------9---------5-5---------5-5-------------------------|
G|----------------------------------6---6--(6)--6---6--(6)------------------|
D|--7/9-------9-------9-------9---7-7-----7---7-7-----7---------------------|
A|---------------------------------(7)---------(7)--------------------------|
E|--------------------------------------------------------------------------|
All the lonely long and winding roads

e|--------------------------------------------------------------------------|
B|--------9-------9-------9---------5-5---------5-5-------------------------|
G|----------------------------------7---7--(7)--4--6---6--------------------|
D|--7/9-------9-------9-------9---7-7-----7---6-6-----7---------------------|
A|---------------------------------(5)---------(3)--------------------------|
E|--------------------------------------------------------------------------|
Hopelessly alone and not alone


[Verse 2]
(like Verse 1)
When I'm feeling grey, I close my eyes, drift far away.
On another day - not today - another day

[Bridge 2]
(like Bridge 1, only last part is different)

All the lonely long and winding roads.

e|--------------------------------------------------------------------------|
B|--------9-------9-------9---------5-5-----5-----5-------------------------|
G|----------------------------------7---7-----7-----7-----------------------|
D|--7/9-------9-------9-------9---7-7----7-----7-----7----------------------|
A|---------------------------------(5)--------------------------------------|
E|--------------------------------------------------------------------------|
Hopelessly alone and not alone


[Chrous]

    E                               A               D               E*
e|--7---7---7---7---7---7---7---7---5---5---5---5---5---5---5---5---4-------|
B|--9---9---9---9---9---9---9---9---5---5---5---5---7---7---7---7---5-------|
G|--9---9---9---9---9---9---9---9---6---6---6---6---7---7---7---7---4-------|
D|--9---9---9---9---9---9---9---9---7---7---7---7---7---7---7---7---6-------|
A|--7---7---7---7---7---7---7---7---7---7---7---7---5---5---5---5--(7)------|
E|----------------------------------5---5---5---5---------------------------|
Monday,Tuesday,Wednesday,Thursday, Friday,Saturday, Sunday Morning comes...
(play the last chord E* after playing the pattern E A D twice.)


[Instrumental]
(Repeat Verse)

[Bridge 3]
All the lonely long and winding roads
Hopelessly alone and not alone


[Chorus]
(this time play E A D pattern three times before playing E*)

[Instrumental]
(Repeat Verse)

final Chords:
    A   D   A
e|--5---5---5------|
B|--5---7---5------|
G|--6---7---6------|
D|--7---7---7------|
A|--7---5---7------|
E|--5-------5------|


************************************

| /   slide up
| \   slide down
| h   hammer-on
| p   pull-off
| ~   vibrato
| +   harmonic
| x   Mute note
| b   Bend
| pb  Pre-bend
| br  Bend release
| pbr Pre-bend release
| brb Bend release bend

************************************
Tap to rate this tab
# A B C D E F G H I J K L M N O P Q R S T U V W X Y Z