Song name
# A B C D E F G H I J K L M N O P Q R S T U V W X Y Z

Travis - Luv tab

Standard Tuning - No capo

Play one measure of these when you see the corresponding chord letter :)
apart from the outro, that's slightly different. just listen/play along with
the record and you'll get it, its really easy to pick up.

 <___________D__________________>   <___________G__________________>
|2---2---2---2-2-2---2---2---2-2-| |3---3---2---3-2-3---3---2---3-2-|
|3---3---2---3-2-3---3---3---3-2-| |0---0---0---0-0-0---0---0---0-0-|
|2---2---2---2-2-2---2---2---2-2-| |0---0---0---0-0-0---0---0---0-0-|
|0---0---0---0-0-0---0---0---0-0-| |0---0---0---0-0-0---0---0---0-0-|
|x---x---x---x-x-x---x---x---x-x-| |x---0---0---0-0-0---0---0---0-0-|
|x---x---x---x-x-x---x---x---x-x-| |3---3---3---3-3-3---3---3---3-3-|

<______________Em7______________>   <_____________A7_______________>
|3---3---2---3-2-3---3---2---3-2-| |3---3---2---3-2-3---3--55---5-5-|
|0---0---0---0-0-0---0---0---0-0-| |2---2---2---2-2-2---2--22---2-2-|
|0---0---0---0-0-0---0---0---0-0-| |0---0---0---0-0-0---0--00---0-0-|
|0---0---0---0-0-0---0---0---0-0-| |2---2---2---2-2-2---2--22---2-2-|
|2---2---2---2-2-2---2---2---2-2-| |0---0---0---0-0-0---0--00---0-0-|
|0---0---0---0-0-0---0---0---0-0-| |x---x---x---x-x-x---x--xx---x-x-|

<______________Bm_______________>   <_____________F#_______________>
|2---2---2---2-2-2---2---2---2-2-| |2---2---2---2-2-2---2---2---2-2-|
|3---3---2---3-2-3---3---2---3-2-| |2---2---2---2-2-2---2---2---2-2-|
|4---4---4---4-4-4---4---4---4-4-| |3---3---3---3-3-3---3---3---3-3-|
|4---4---4---4-4-4---4---4---4-4-| |4---4---4---4-4-4---4---4---4-4-|
|2---2---2---2-2-2---2---2---2-2-| |4---4---4---4-4-4---4---4---4-4-|
|x---x---x---x-x-x---x---x---x-x-| |2---2---2---2-2-2---2---2---2-2-|


Intro: D, G, Em7, A7

Verse 1:
D                                               G
What's so wrong, why the face so long, is it over?
Em7                                           A7
And where are you going that you no longer belong here?
    D                                              G
And distance tells you that distance must come between love...
               Em7                   A7
Where have you been luv? And the mistake we made was in never having planned
            D
to fall in love, luv.

Refrain:
F#                                        Bm
Singing this song, singing along makes it easier for me to see you go.
Em7                                         A7
But in doing so, in letting you go it only serves to show me that I'm still

in love with you.

Break: D......G.......Em7.......A7

[Repeat Refrain]

[Repeat Verse 1]

Outro:
                A7                                                  D
It's just the chance we took, having never ever planned to fall in love, luv.

|---------------3-----------5--3-----33---3-----5------3----------------------|
|---------------2-----------2--2-----22---2-----2------2----------------------|
|---------------0-----------0--0-----00---0-----0------0----------------------|
|---------------2-----------2--2-----22---2-----2------2----------------------|
|---------------0-----------0--0-----00---0-----0------0----------------------|
|---------------x-----------x--x---x-xx---x-----x------x----------------------|
It's just the chance we took, having never ever planned
|-----------3---3-----3-3---3---2---------2-------------2--------------------|
|-----------0---0-----2-2---2------------3----------3------------------------|
|-----------0---0-----0-0---0-----------2--------2---------------------------|
|-----------0---0-----2-2---2----------0-----2h4-----------------------------|
|-----------2---2-----0-0---0---------x--------------------------------------|
|-----------0---0---x-x-x---x--------x---------------------------------------|
to fall in love, luv, luv.
Tap to rate this tab
# A B C D E F G H I J K L M N O P Q R S T U V W X Y Z