Song name
# A B C D E F G H I J K L M N O P Q R S T U V W X Y Z

Travis - Another Guy tab

Standard Tuning.

This is pretty easy to play there are only two main guitar parts to the song.

The intro and verses guitar are:


--------------------------------------------|
--------------------------------------------|
--------------------------------------------|
--------------------------------------------|
---9--9--9--9--9--9--9--11--11--11----------|
---0--0--0--0--0--0--0--0---0---0-----------| x2


--------------------------------------------|
--------------------------------------------|
--------------------------------------------|
--1--1--1--1--1--1/6--6--6------------------|
--0--0--0--0--0--0/0--0--0------------------|
--0--0--0--0--0--0/0--0--0------------------| x2

The guitar during each chorus is:


--------------------------------------------|
--------------------------------------------|
--2--2--2--2--2--2--2--2--------------------|
--1--1--1--1--1--1--1--1--------------------|
--2--2--2--2--2--2--2--2--------------------|
--------------------------------------------| x2


--------------------------------------------|
--------------------------------------------|
--------------------------------------------|
--1--1--1--1--1--1/6--6--6------------------|
--0--0--0--0--0--0/0--0--0------------------|
--0--0--0--0--0--0/0--0--0------------------| x2




That's it. It is easy enough to figure out the strumming style and how many times to 
play each note...just listen to it or watch a live performance on youtube. Enjoy and please rate.
Tap to rate this tab
 
# A B C D E F G H I J K L M N O P Q R S T U V W X Y Z