Song name
# A B C D E F G H I J K L M N O P Q R S T U V W X Y Z

Travis - Last Laugh Of The Laughter tab

Intro:
D (x4) then play this twice:

E -2-2-0-3-3-2-x-x-0-3-3-2------------|
B -3-3-0-0-0-0-2-2-3-0-0-0------------|
G -2-2-0-0-0-0-0-0-0-0-0-0------------|      x2
D ------------------------------------|
A ------------------------------------|
e ------------------------------------|


E -2-2-0-3-3-2-x-x-0-3-3-2------------|
B -3-3-0-0-0-0-2-2-3-0-0-0--0--2-3----|
G -2-2-0-0-0-0-0-0-0-0-0-0------------|
D ------------------------------------|
A ------------------------------------|
e ------------------------------------|

its not all here but this is most of it
HAVE FUN
by scott brown
Tap to rate this tab
# A B C D E F G H I J K L M N O P Q R S T U V W X Y Z