Song name
# A B C D E F G H I J K L M N O P Q R S T U V W X Y Z

Travis - Love Will Come Through tab

Artist: Travis
Title: Love Will Come Through
Tabber: Chris Cavill

Date: 18th April 2004

Standard tuning!

Tuning: Capo 2nd fret

1st guitar:

    ***play the riff to suit the song***

e-2-2-2-2--3-3-3-3-3-3-3--2-2-2-2--2-2-2-2-2-2-2-|
B-3-3-3-3--3-3-3-3-3-3-3--3-3-3-3--2-2-2-2-2-2-2-|
G-4-4-4-4--0-0-0-0-0-0-0--2-2-2-2--3-3-3-3-3-3-3-|  Play all way through song
D-4-4-4-4--0-0-0-0-0-0-0--0-0-0-0--4-4-4-4-4-4-4-|
A-2-2-2-2--2-2-2-2-2-2-2--x-x-x-x--4-4-4-4-4-4-4-|
E-2-2-2-2--3-3-3-3-3-3-3--x-x-x-x--2-2-2-2-2-2-2-|


2nd guitar:

e---------------------------|
B--0-2-3-2-3-5-3-2-0-2-0----|
G-------------------------3-|   ***Play twice***
D---------------------------|
A---------------------------|
E---------------------------|

Then after you played that twice:

e---------------------------|
B--0-2-3-2-3-5-7-5-3-5-3-2--|
G---------------------------|  ***play once then go back***
D---------------------------|
A---------------------------|
E---------------------------|

This is my second attempt at writting a tab so???

(please review this tab)

Thanks For Looking!
Tap to rate this tab
# A B C D E F G H I J K L M N O P Q R S T U V W X Y Z