Song name
# A B C D E F G H I J K L M N O P Q R S T U V W X Y Z

Travis - As You Are tab

Help us improve GuitareTab! Take a short survey!
As You Are (solo) by Travis, tabbed by Dave Price-Williams. This is one of Travis' best
songs, despite being less well-known than all the singles. Hope this solo tab comes
across right; it's my first tab! Any amendments, email me travis_dave@hotmail.com.
Cheers
   
e|---------------------|------------------|
B|---------------------|------------------|
G|--------------8p7h8--|--7~--------------|
D|-----s5---8----------|------8---3s5s3~--|
A|--6------------------|------------------|
E|---------------------|------------------| 

                                        very softly
e|-------------------------------|-----------------|
B|--------------6----------------|-----------------|
G|------3h5-5s7---5s7-5-3h5p3----|--3~----3-5---7--|
D|--3h5-----------------------5--|-----------------|
A|-------------------------------|-----------------|
E|-------------------------------|-----------------|

                                                 
e|-------------------|--8------------------|
B|-----------8---11--|----11---8-8---------|
G|--8---10-----------|-------------10---8--|
D|-------------------|---------------------|
A|-------------------|---------------------|
E|-------------------|---------------------|

  *see note on sound affect for these*
e|-----------------|------------------|
B|-----------------|---------------8--|
G|--7---5---3---5--|--7---8---10------|
D|-----------------|------------------|
A|-----------------|------------------|
E|-----------------|------------------|

                                **see note**
e|-------------------|---------------------|
B|--10~~~~~~~~~~~~~~~~~~~~~~~~~~~(feedback)|
G|--10~~~~~~~~~~~~~~~~~~~~~~~~~~~(feedback)|
D|-------------------|---------------------|
A|-------------------|---------------------|
E|-------------------|---------------------|


e|--------------------------------------|--------------------------x-x--|
B|--------11----------------------------|--------------------------x-x--|
G|--10b12----10b12r10p8----8~-----------|--------------------------x-x--|
D|----------------------10---10p8-------|--------------------------x-x--|
A|--------------------------------10-9--|--8s6-8-b9r8-6---6~-------x-x--|
E|--------------------------------------|---------------8-----6h8~-x-x--|

 
e|---------------------------|--------------------------------|
B|---------------------------|--------------------------------|
G|--10-10-10-10-10-10-10-10--|--10-10-10-10-10-10p8---10p8----|
D|--10-10-10-10-10-10-10-10--|--10-10-10-10-10-10~~10-----10--|
A|--8--8--8--8--8--8--8--8---|--8--8--8--8--8--8~~~~~~~~~~~~--|
E|---------------------------|--------------------------------|


e|-----------------------------|---------------------------|
B|-----------------------------|---------------------------|
G|--10-10-10-10-10b11r10-8s10--|--10-10-10-10-10-10-10-10--|
D|--10-10-10-10-10b11r10-8s10--|--10-10-10-10-10-10-10-10--|
A|--8--8--8--8--8-b9-r8--6s8---|--8--8--8--8--8--8--8--8---|
E|-----------------------------|---------------------------|


* These notes can be played by turning the volume down slightly (ie by about 2 notches)
quickly just before the string is plucked, and raising the volume quickly to full to
give a 'fade in' effect. Or you could cheat and use a similar effect on an effects pedal!

** Just before the louder solo, let the 10th fret of G and B ring as much as possible and
your gain setting should be sufficient enough to give feedback as the channel is switched
half way through the 2nd bar.
Related for As You Are tab