Guitaretab - guitar tabs
Song name
# A B C D E F G H I J K L M N O P Q R S T U V W X Y Z

Travka - Ce Noapte tab

|----------0-----------------1---------------3----------------0-----|
|-------1----1-------------1---1-----------1---1------------0---0---|
|-----2--------2---------2-------2-------0-------0--------0------0--|
|---2------------------3---------------2----------------2-----------|
|--0-----------------3---------------3----------------2-------------|
|-------------------------------------------------------------------|
   A#                F                C               E#

         Repeat until this part kick's in
[ Tab from: http://www.guitaretab.com/t/travka/106019.html ]
             {slow}
|---------------3p1----------------1-------------------------------------------3-|
|-----------0h1-----------------1-----1-----------------0h1--------------------3-|
|------2-------------------2-------------2---------0--------0--------0-----------|
|----2---2--------------------3------------------2---2-------------2-------------|
|--0--------------------3----------------------3-----------------2----------2----|
|-------------------------------------------------------------------------3------|
   A#                   F                     C                  E#       G


          now strum  this chords

   A#    F    C    G
|---0----1----3----3-----|
|---1----1----1----3-----|
|---2----2----0----0-----|
|---2----3----2----0-----|
|---0----3----3----2-----|
|--------1---------3-----|

       I don't play the solo, sorry.... you have to find it sommewere else


gabryllon@yahoo.com