Song name
# A B C D E F G H I J K L M N O P Q R S T U V W X Y Z

Tre Allegri Ragazzi Morti - Guerra Civile tab

#----------------------------------PLEASE NOTE--------------------------------#
#This file is the author's own work and represents their interpretation of the#
#song. You may only use this file for private study, scholarship, or research.#
#-----------------------------------------------------------------------------#
#-- File created with Instab - http://www.pconline.com/~smcarey/instab.html --#
#-----------------------------------------------------------------------------#

----------------------------------------------------------------------------
Guerra Civile - Tre Allegri Ragazzi Morti
----------------------------------------------------------------------------

Album: piccolo intervento a vivo
Transcribed by: Gei
Email: l_c_f_r@hotmail.com

tuning: standard

Play this from starts to end:
-|-7-7-7-7-7-x-x-x----------------x-x-x-7-7-7-7-7-x-x-x----------------x-x-x-|-
-|-7-7-7-7-7-x-x-x-8--8--8--8--8--x-x-x-7-7-7-7-7-x-x-x-8--8--8--8--8--x-x-x-|-
-|-8-8-8-8-8-x-x-x-9--9--9--9--9--x-x-x-8-8-8-8-8-x-x-x-9--9--9--9--9--x-x-x-|-
-|-9-9-9-9-9-x-x-x-10-10-10-10-10-x-x-x-9-9-9-9-9-x-x-x-10-10-10-10-10-x-x-x-|-
-|-9-9-9-9-9-x-x-x-10-10-10-10-10-x-x-x-9-9-9-9-9-x-x-x-10-10-10-10-10-x-x-x-|-
-|-7-7-7-7-7-x-x-x-8--8--8--8--8--x-x-x-7-7-7-7-7-x-x-x-8--8--8--8--8--x-x-x-|-
                                                                              

Tablature Keys:

h - hammer on
p - pull off
b - bend
r - relese bend
/ - slide up
 - slide down
v - vibrato
* - trill
x - mute string
pm - palm mute
x\ - pick scrape (direction same as slide)

----------------------------------------------------------------------------
Tap to rate this tab
# A B C D E F G H I J K L M N O P Q R S T U V W X Y Z