Song name
# A B C D E F G H I J K L M N O P Q R S T U V W X Y Z

Treble Charger - Hole In Your Head tab

--------------------------------------------------------------------------
			     Hole In Your Head - Treble Charger
--------------------------------------------------------------------------
Tabbed by: Rayhan Mustafa
Email: Darth_Qurashi@hotmail.com

Tuning:Standard

Verse Part 1 (twice)
e|------------------------------------------------------------------------|
B|------------------------------------------------------------------------|
G|-------4----------------------------------------------------------------|
D|2------4--x16-----------------------------------------------------------|
A|2 x16--2----------------------------------------------------------------|
E|0-----------------------------------------------------------------------|

Verse Part 2 Rhythm
e|------------------------------------------------------------------------|
B|------------------------------------------------------------------------|
G|---------------------6----5-------2-------------------------------------|
D|5----------2---------4-x8-5--x8---2-x8------2~--------------------------|
A|5-x16------2 x8------4----3-------0---------2~--------------------------|
E|3----------0--------------------------------0~--------------------------|

Verse Part 2 Lead
e|--------------------------------------------0-0-0-0-0-0-0---------------|
B|--------------------------------------------5-5-5-5-5-7-9---------------|
G|------------------------------------------------------------------------|
D|------------------------------------------------------------------------|
A|------------------------------------------------------------------------|
E|------------------------------------------------------------------------|

Chorus
e|------------------------------------------------------------------------|
B|------------------------------------------------------------------------|
G|-------4-6----2------------------------------4--6----5-----2------------|
D|-2-----4-6----2-x7-----------2---------2-----4--6----5-x8--2--x8--------|
A|-2-x8--2-4----0----2-3-2-0---2---------2-x8--2--4----3-----0------------|
E|-0---------------------------0---------0--------------------------------|

Post-Chorus - Rhythm
e|------------------------------------------------------------------------|
B|------------------------------------------------------------------------|
G|------------------------4-----------------------------------------------|
D|--------2---------------4-x16-------------------------------------------|
A|--------2-x16-----------2-----------------------------------------------|
E|--------0---------------------------------------------------------------|

Post-Chorus - Lead
e|--------0-0-0-0-0-0-0---0-0-0--0--0--0-0-~------------------------------|
B|--------5-4-2-0-2-4-5---7-9-5--10-9--7-5-~------------------------------|
G|------------------------------------------------------------------------|
D|------------------------------------------------------------------------|
A|------------------------------------------------------------------------|
E|------------------------------------------------------------------------|

Verse 

Chorus


Bridge - Rhythm (clean)	      Use a whammy bar to lower the pitch then back
e|------------------------------------------------------------------------|
B|------------------------------------------------------------------------|
G|------------------------------------------------------------------------|
D|-----------------------------------2~\/---------------------------------|
A|2-2-2-2-3-3-3-3-5-5-5-5-0-0-0-0----2~\/---------------------------------|
E|-0-0-0-0-0-0-0-0-0-0-0-0-0-0-0-0---0~\/---------------------------------|
  \_______________________________/
		Repeat 4 times

Bridge - Lead
e|------------------------------------------0-0-0-0-0-0-0-0---------------|
B|------------------------------------------5-5-5-5-5-4-2-0---------------|
G|------------------------------------------------------------------------|
D|------------------------------------------------------------------------|
A|------------------------------------------------------------------------|
E|------------------------------------------------------------------------|

Chorus (twice)

Outro (twice)
e|------------------------------------------------------------------------|
B|------------------------------------------------------------------------|
G|---------4--6-------5-----2---------------------------------------------|
D|-2-------4--6-------5-x8--2--2------------------------------------------|
A|-2-x8----2--4-------3-----0--2------------------------------------------|
E|-0---------------------------0------------------------------------------|

| /  slide up
| \  slide down
| h  hammer-on
| p  pull-off
| ~  vibrato
| +  harmonic
| x  Mute note
===========================================================================
Tap to rate this tab
# A B C D E F G H I J K L M N O P Q R S T U V W X Y Z