Song name
# A B C D E F G H I J K L M N O P Q R S T U V W X Y Z

Treble Charger - Even Grable tab

Title: Even Grable

Artist: Treble Charger

Album: Self=Title

Tuning: Standard

Key:
/ = slide up
\ = slide down
* = let ring
. = palm mute
b = bend
h = hammer on
p = pull off
< > = pick fast
( ) = harmonic

Intro/Main Riff:

Guitar 1:

E|----------------------------------------------------|
B|----------------------------------------------------|
G|-16-20-16-14--12-14--12-14--16-20-16-14--12-14-12-9-|
D|----------------------------------------------------|
A|-14-18-14-12--10-12--10-12--14-18-14-12--10-12-10-7-|
E|----------------------------------------------------|

E|-----------------------------------------------------|
B|-----------------------------------------------------|
G|-16-20-16-14--12-14--12-14--16-20-16-14--12-14-12-16-|
D|-----------------------------------------------------| Bend 14 lots to get
A|-14-18-14-12--10-12--10-12--14-18-14-12--10-12-10-14-| the whirring effect
E|-----------------------------------------------------|

Guitar 2 basically can do the same as Guitar 1, or power chords of the Bass 

riff, which I think is:

E|-------------------------|
B|-------------------------|
G|-------------------------| 
D|-------------------5-5-5-| x4
A|-5-5-5-7-7-7-2-2-2-3-3-3-|
E|-3-3-3-5-5-5-0-0-0-------|

Verse:
(Lots of Feedback to Begin with, then...)

Guitar 1 & 2:

E|-------------------------|
B|-------------------------|
G|-------------------------|
D|-------7-7-7-------5-5-5-| x2
A|-5-5-5-5-5-5-2-2-2-3-3-3-|
E|-3-3-3-------0-0-0-------|

Chorus:

Guitar 1 & 2:

  C bar Chord  G bar Chord  F bar Chord
E|--8-----------3------------1----------| x4
B|--8-----------3------------1----------| Pluck through the bottom 4 strings 	
G|--9-----------4------------4----------| before the next chord comes, listen
D|-10-----------5------------3----------| to the song and you'll know what I
A|-10-----------5------------3----------| mean
E|--8-----------3------------1----------|

Clean bit:

Guitar 1:

E|-3-3-3-5-5-5-|
B|-3-3-3-5-5-5-|
G|-4-4-4-5-5-5-|
D|-------------| xlots
A|-------------|
E|-------------|

Guitar 2 comes in:

E|-------|       |---------------|
B|-------|       |---------------| 
G|-4-4-4-|       |-2-2-2-2-2-2-2-|
D|-5-5-5-| xlots |-3-3-3-3-3-3-3-|
A|-5-5-5-|       |-3-3-3-3-3-3-3-|
E|-------|       |---------------|

The End Bit (Tricky)

Guitar 2 (Guitar 1 like, plays it on a different key or something, I'll try 

figure it out, then play it):

First Bit
E|------------------------------------------|
B|------------------------------------------|
G|-12*-----12--14--16--20----16----14---12--|
D|------------------------------------------|
A|-10*-----10--12--14--18*---14*---12*--10*-|
E|------------------------------------------|


  Other Bit
E|------------------------------------------|
B|------------------------------------------|
G|-12*--12-12*--12-12*--12-12*--12////\\\\\-|
D|------------------------------------------|
A|-10*--10-10---10-10*--10-10*--10////\\\\\-|
E|------------------------------------------|

E|-------------------------------|
B|-------------------------------|
G|-14-14-14*--14-14*--14-14*--14-|
D|-------------------------------|
A|-12-12-12---12-12*--12-12*--12-|
E|-------------------------------|


E|-------------------------------|
B|-------------------------------|
G|-16*--16-16*--16-16*--16-16*---|
D|-------------------------------|
A|-14*--14-14---14-14*--14-14*---|
E|-------------------------------|


E|--------------------|
B|--------------------|
G|-20-20-20--16-14-12-|
D|--------------------|
A|-18-18-18--14-12-10-|
E|--------------------|



Tabber: Winno

Email: winnorulz@hotmail.com
Tap to rate this tab
# A B C D E F G H I J K L M N O P Q R S T U V W X Y Z