Song name
# A B C D E F G H I J K L M N O P Q R S T U V W X Y Z

Treble Charger - Scatterbrain chords

Highlighted       Show chord diagrams
Treble Charger
Scatterbrain
Maybe Its Me
1997
Submitted by: paramore_fans@yahoo.com

Key: A

Tuning: Standard EADGBe

Chords used:
A -   x02220
C#m - x46654
Bm -  x24432
F#m - 244222
E -   022100
D -   xx0232
E -   022100
G -   320033
F -   133211


Intro: A-C#m-F#m-E-Bm--C#m-D- x2

Guitar 2:
e|-----------------------------2--0------------|
B|----------------------------------3--2--3----|
G|-2-2-2--6-6-6------------------------------2-|
D|-2-2-2--6-6-6--4-4-4--2-2-2------------------|
A|-0-0-0--4-4-4--4-4-4--2-2-2------------------|
E|---------------2-2-2--0-0-0------------------|

e|-----------------------------2--0----------5-|
B|----------------------------------3--2--3----|
G|-2-2-2--6-6-6--------------------------------|
D|-2-2-2--6-6-6--4-4-4--2-2-2------------------|
A|-0-0-0--4-4-4--4-4-4--2-2-2------------------|
E|---------------2-2-2--0-0-0------------------|


Verse 1:
A            C#m
Reasoning is wrong
           F#m
aside from anything
       D
that's rightly named
  A        G
Deniably insane So
            Bm       C#m D
lost you're torn away
     A            C#m
Your sympathy is strange
          F#m
it's so unlike you
         D
still to be the same
A                 G
Fight the urge to change
           Bm        C#m D
and leave another day


Refrain 1:
C#m         A
   It's not hard
C#m         F#m
   It's not so depleted
   G
To play it straight
                 E
ahead it doesn't make it true


Chorus:
       A             Bm
You're throwing your charm away
    D              F
You turned into a scatterbrain
  A                Bm
I don't know why I don't know why
       D               E
You're telling me it's all the same
   A             Bm
By throwing your charm away
      D            F
Don't turn into a scatterbrain
  A                Bm
I don't know why I don't know why
      D         E
don't ask me why


Interlude: A-C#m-F#m-E-Bm--C#m-D- x2

Guitar 2:
e|-----------------------------2--0------------|
B|----------------------------------3--2--3----|
G|-2-2-2--6-6-6------------------------------2-|
D|-2-2-2--6-6-6--4-4-4--2-2-2------------------|
A|-0-0-0--4-4-4--4-4-4--2-2-2------------------|
E|---------------2-2-2--0-0-0------------------|

e|-----------------------------2--0----------5-|
B|----------------------------------3--2--3----|
G|-2-2-2--6-6-6--------------------------------|
D|-2-2-2--6-6-6--4-4-4--2-2-2------------------|
A|-0-0-0--4-4-4--4-4-4--2-2-2------------------|
E|---------------2-2-2--0-0-0------------------|


Verse 2:
A
Lately you've been
C#m
hard to find
       F#m
You're hiding from
       D
what's left behind
       A            G
You're falling into habits
        Bm        C#m D
I don't understand
A           C#m           F#m
Crazy as it seems I'm not sure
            D
it's what I don't believe
 A                G
Afraid the day is gone
            Bm        C#m D
before you start again


Refrain 2:
C#m         A
   It's not hard
C#m            F#m
   It's not so complicated
   G
To play it straight
                 E
ahead it doesn't make it true


(Repeat Chorus)


Guitar Solo: C#m--A-G-F#m--C#m--F#m--Bm--D
C#m--Bm-- x2, guitar shredding


(Repeat Chorus)


Outro: A-C#m-F#m-E-Bm--C#m-D- x4

Guitar 2:
e|-----------------------------2--0------------|
B|----------------------------------3--2--3----|
G|-2-2-2--6-6-6------------------------------2-|
D|-2-2-2--6-6-6--4-4-4--2-2-2------------------|
A|-0-0-0--4-4-4--4-4-4--2-2-2------------------|
E|---------------2-2-2--0-0-0------------------|

e|-----------------------------2--0----------5-|
B|----------------------------------3--2--3----|
G|-2-2-2--6-6-6--------------------------------|
D|-2-2-2--6-6-6--4-4-4--2-2-2------------------|
A|-0-0-0--4-4-4--4-4-4--2-2-2------------------|
E|---------------2-2-2--0-0-0------------------|

e|-----------------------------2--0------------|
B|----------------------------------3--2--3----|
G|-2-2-2--6-6-6------------------------------2-|
D|-2-2-2--6-6-6--4-4-4--2-2-2------------------|
A|-0-0-0--4-4-4--4-4-4--2-2-2------------------|
E|---------------2-2-2--0-0-0------------------|

e|-----------------------------2--0---------|
B|----------------------------------3--2--3-|
G|-2-2-2--6-6-6-----------------------------|
D|-2-2-2--6-6-6--4-4-4--2-2-2---------------|
A|-0-0-0--4-4-4--4-4-4--2-2-2---------------|
E|---------------2-2-2--0-0-0---------------|
Tap to rate this tab
# A B C D E F G H I J K L M N O P Q R S T U V W X Y Z