Song name
# A B C D E F G H I J K L M N O P Q R S T U V W X Y Z

Treble Charger - Favorite Worst Enemy chords

Highlighted       Show chord diagrams
Treble Charger
Favorite Worst Enemy
Wide Awake Bored
2000
Submitted by: paramore_fans@yahoo.com

Key: A

Tuning: Standard EADGBe

Chords used:
E -    022100
F#m -  244222
D -    xx0232
A -    x02220
F -    133211
Bm -   x24432
E/G# - 476xxx
D/F# - 2x023x


Intro: E-D-Bm-E-D-A- x2

Guitar 2:
e|---------------------------------|
B|-9-10-9--------------------------|
G|--------11--9--11----11----11----|
D|-------------------9-----9-----9-|
A|---------------------------------|
E|---------------------------------|

e|---------------------------------|
B|-9-10-9--------12----12----12----|
G|--------11--9------9-----9-----9-|
D|---------------------------------|
A|---------------------------------|
E|---------------------------------|

e|---------------------------------|
B|-9-10-9--------------------------|
G|--------11--9--11----11----11----|
D|-------------------9-----9-----9-|
A|---------------------------------|
E|---------------------------------|

e|---------------------------12----|
B|-9-10-9--------12----12-------12-|
G|--------11--9------9-----9-------|
D|---------------------------------|
A|---------------------------------|
E|---------------------------------|


Verse 1:
   E                 F#m
If you could read my mind
       D
Than I know you'd find
A              E        F#m D A
everything you never say
    E               F#m
You said you needed time
     D                  A
So I asked if you would mind
           E          F#m D A
If I could do the same


Refrain:
E             F#m  D      A
  with Senses over blowing
E
  You're never
F#m           D    F
coming you're going


Chorus 1:
And it's driving me
E    F#m
crazy   Knowing what's
D           A
good for you And I'm
                E    F#m
longing for the lazy days
                     D          A
But those were never good enough


Verse 2:
  E                   F#m
I guess that you were right
         D
When you said I might
A          E             F#m D A
Really get bored with you
  E                F#m
I never would have guessed
          D             A
That it'd end in such a mess
             E           F#m D A
Or that it'd be this soon


(Repeat Refrain)


Chorus 2:
And it's driving me
E    F#m
crazy   Knowing what's
D           A
good for you And I'm
                E    F#m
longing for the lazy days
But those were
      Bm
never good enough
      E
never good enough


Chorus 3:

Cause there's
           A       E/G#
something about you
But I can't put
   D           F
my finger on it
              A      F#m
So hard to forget you
You're my favorite
      Bm   D
worst enemy
(Repeat)


Bridge:
F#m
   When you sat there
laughing all about it
D
  Did it make you feel
any better about it
Bm
  Can you try to
hide it weel enough
   D
To fake it just
    Bm
for me I doubt it


Guitar Solo: E-F#m-D-A- x4


Chorus 4:
And it's driving me
E    F#m
crazy   Knowing what's
D           A
good for you And I'm
                E    F#m
longing for the lazy days
But those were
      Bm
never good enough
      E
never good enough
never good enough


(Repeat Chorus 3)


Interlude: A-E/G#-D/F#-F- x2


Outro:
A    E/G#
Enemy
you're my
         D/F# F
favorite enemy
(Repeat)


Guitar Solo: A-E/G#-D/F#-F- until fade
Tap to rate this tab
# A B C D E F G H I J K L M N O P Q R S T U V W X Y Z