Song name
# A B C D E F G H I J K L M N O P Q R S T U V W X Y Z

Treble Charger - Dont Believe It All drum

artist: Trble charger
Song: Don't beleive it all
Album: Detox


C1:Cymbal 1 
C2:Cymbal 2     -c-  Is other cymbal
R-:Ride cymbal
H-:Hihat        -X- Hihat accent or Hit hihat open then close
T-:Tom          -#-Means hit hihat kinda open then closing it fast
F-:Floor tom
S-:Snare drum  -g-gost note  -d- double stroke role
B-:Bass drum
hf:Hihat pedale


  |-------2x-------|


Intro

  |---------------3-x---------------|
C-|x---------------|----------------|x---------------|----------------|
R-|----x---x---x---|x---x---x---x---|----x---x---x---|x---x---x-------|
H-|----------------|----------------|----------------|------------X---|
S-|--------o-------|--g-----o-----g-|--------o-------|--g-----o-o-----|
B-|o-----oo------o-|o-----oo--------|o-----oo------o-|o-----oo--------|


Verse 1

H-|x---x---x---x---|x---x---x---x---|x---x---x---x---|x---x---x---X---|-
S-|--------o-------|--------o-----g-|--------o-------|--------o-----g-| -3x
B-|o-------------o-|o---o-----------|o-------------o-|o---o-----o-----|-
Hf|x---------------|----------------|----------------|----------------|

H-|x---x---x---x---|x---x---x---x---|x---x---x---x---|X---X---X---X---|
S-|--------o-------|--------o-----g-|--------o-------|--------o-------|
B-|o-------------o-|o---o-----------|o-------------o-|o---o-----------|
Hf|x---------------|----------------|----------------|----------------|


Prochorus           ________________ ________________
                   |1.              |2.              |
C-|----------------|x---------------|x---------------|----------------|
R-|x---x---x-------|----x---x---x---|----x---x---x---|x---x---x---x---|
T-|-o-o-o-o--------|----------------|----------------|----------------|
S-|------------gggg|------------o---|------------o-oo|--------o-----gg|
F-|--o---o---------|----------------|----------------|----------------|
B-|o---o---o-------|o---------o-----|o---------o-----|o---o-----------|

R-|x---x---x---x---|x---x---x---x---|----------------|
T-|----------------|----------------|-----------oo---|
S-|--g-----o-----g-|--------o-------|OO-oo---OO------|
B-|----o-----------|o---o-----------|----------------|


Chorus 1

  |---------------5-x---------------|
C-|x---------------|----------------|x---------------|----------------|
R-|----x---x---x---|x---x---x---x---|----x---x---x---|x---x---x-------|
H-|----------------|----------------|----------------|------------X---|
S-|--------o-------|--g-----o-----g-|--------o-------|--g-----o-o-----|
B-|o-----oo------o-|o-----oo--------|o-----oo------o-|o-----oo--------|


Repeat verse 1 for verse 2


Repeat Prochorus 1 for Prochorus 2 (6th and last measure is diffrent)
(6th measure)                      (Last measure)
R-|x---x---x---x---|               T-|-----------oo---|
S-|--------o------g|               S-|OO-oo--gOO------|
B-|o---o-----------|


Chorus 2


  |---------------3-x---------------|
C-|x---------------|----------------|x---------------|----------------|
R-|----x---x---x---|x---x---x---x---|----x---x---x---|x---x---x-------|
H-|----------------|----------------|----------------|----------------|
S-|--------o-------|--g-----o-----g-|--------o-------|--g-----o-------|
F-|----------------|----------------|----------------|------------o-o-|
B-|o-----oo------o-|o-----oo--------|o-----oo------o-|o-----oo--------|

C-|x---------------|----------------|x---------------|----------------|
R-|----x---x---x---|x---x---x---x---|----x---x---x---|x---x---x-------|
H-|----------------|----------------|----------------|----------------|
S-|--------o-------|--g-----o-----g-|--------o-------|--g-----o---o-o-|
B-|o-----oo------o-|o-----oo--------|o-----oo------o-|o-----oo--------|

C-|x---------------|----------------|x---------------|----------------|
R-|----x---x---x---|x---x---x---x---|----x---x---x---|X---------------|
T-|----------------|----------------|----------------|----------o-----|
S-|--------o-------|--g-----o-----g-|--------o-------|ggooo---o-------|
F-|----------------|----------------|----------------|------------o-o-|
B-|o-----oo------o-|o-----oo--------|o-----oo------o-|----------------|


Guitar solo

C-|x---------------|----------------|x---------------|----------------|
R-|----x---x---x---|x---x---x---x---|----x---x---x---|x---x---x-------|
H-|----------------|----------------|----------------|----------------|
S-|--------o-------|--g-----o-----g-|--------o-------|--g-----o-------|
F-|----------------|----------------|----------------|------------o-o-|
B-|o-----oo------o-|o-----oo--------|o-----oo------o-|o-----oo--------|
                                                      ________________
                                                     |1.              |
C-|x---------------|----------------|x---------------|--------x-------|
R-|----x---x---x---|x---x---x---x---|----x---x---x---|x---x-------x---|
S-|--------o-------|--g-----o-----g-|--------o-------|--g-----o---o-o-|
B-|o-----oo------o-|o-----oo--------|o-----oo------o-|o-----oo--------|

                        >   >   >    >   >   >
C-|----------------|x---------------|----------------|
R-|x---x---x---x---|----------------|----------------|
T-|----------------|----------------|--------------o-|
S-|--g-----o-------|----o---o---o---|o---o---o---oo--|
F-|----------------|----o---o---o---|o---o---o-------|
B-|o-----oo--------|o---------------|----------------|


Pt (Loose hihat)

C-|x---x-----------|x---x-----------|x---------------|----------------|
H-|----------------|----------------|----x---x---x---|x---x---x---x---|
S-|----------------|--------f---f---|--------o-----g-|--------o-------|
B-|o---o-----------|o-o-o-----o---o-|o---o-----------|o---o-----------|

C-|x---x-----------|x---x-----------|----------------|----------------|
H-|----------------|----------------|x---x---x---x---|x---x---x---x---|
S-|----------------|--------o-ooooo-|--------o-------|--g-----o-----g-|
B-|o---o-----------|o-o-o-----------|o-----oo------o-|o-----oo--------|

  |---------------2-x---------------|
C-|x---------------|----------------|x---------------|----------------|
H-|----x---x---x---|x---x---x---x---|----------------|------------X---|
S-|--------o-------|--g-----o-----g-|o---o---o---o---|o---o---o-o-----|
F-|----------------|----------------|----o---o---o---|o---o---o-------|
B-|o-----oo------o-|o-----oo--------|o---------------|----------------|


Outro

H-|x---x---x---x---|x---x---x---x---|x---X---x---x---|x---x---x---x---|
S-|--------o-------|--------o-------|--------o-------|--------o-------|
B-|----o-----------|----o-----------|----o-----------|----o-----------|
Hf|x---------------|----------------|--------x-------|----------------|

H-|x---X---x---x---|x---x---x---x---|x---X---x---x---|x---x---x---X---|
S-|--------o-------|--------o-------|--------o-------|--------o-------|
B-|----o-----------|----o-----------|----o-----------|----o-----------|
Hf|--------x-------|----------------|--------x-------|----------------|

C-|x---------------|----------------|----------------|----------------|
H-|----X---x---x---|x---x---x---x---|x---X---x---x---|x---x---x---x---|
S-|--------o-------|--------o-------|--------o-------|--------o-------|
B-|o---o-----------|----o-----------|----o-----------|----o-----------|
Hf|x-------x-------|----------------|--------x-------|----------------|

H-|x---X---x---x---|x---x---x---x---|x---X---X---X---|----------------|
T-|----------------|----------------|----------------|--------------oo|
S-|--------o-------|--------o-------|--------o-------|oooo-OO--ooooo--|
B-|----o-----------|----o-----------|----o-----------|----------------|
Hf|--------x-------|----------------|----------------|----------------|


Chorus 3 (Ending part)               _________________________________
                                    |1.3.                             |
C-|x---------------|----------------|x---------------|----------------|
R-|----x---x---x---|x---x---x---x---|----x---x---x---|x---x---x-------|
S-|--------o-------|--g-----o-----g-|--------o-------|--g-----o-------|
F-|----------------|----------------|----------------|------------o-o-|
B-|o-----oo------o-|o-----oo--------|o-----oo------o-|o-----oo--------|
   _________________________________ _________________________________
  |2.                               |4.6.                             |
C-|x---------------|----------------|x---------------|----------------|
R-|----x---x---x---|x---x---x---x---|----x---x---x---|----------------|
H-|----------------|----------------|----------------|-----Xx---------|
S-|--------o-------|--g-----o-o-----|--------o-------|ooooo--oooooo---|
F-|----------------|------------o-o-|----------------|-------------ooo|
B-|o-----oo------o-|o-----oo--------|o-----oo------o-|----------------|
   _________________________________
  |5.                               |
C-|x---------------|----------------|x---------------|----------------|
R-|----x---x---x---|x---x---x-------|----x---x---x---|x---x---x-------|
H-|----------------|----------X-----|----------------|----------------|
S-|--------o-------|--g-----o-ooo---|--------o-------|--g-----o-------|
F-|----------------|-------------ooo|----------------|------------o-o-|
B-|o-----oo------o-|o-----oo--------|o-----oo------o-|o-----oo--------|

C-|x---------------|----------------|x---------------|----------------|
R-|----x---x---x---|x---x---x-------|----x---x---x---|x---x---x-------|
H-|----------------|----------X-----|----------------|----------------|
S-|--------o-------|--g-----o-ooo---|--------o-------|--g-----o---o-o-|
F-|----------------|-------------ooo|----------------|----------------|
B-|o-----oo------o-|o-----oo--------|o-----oo------o-|o-----oo--------|

C-|x---------------|x---------------|x-------x-------|x---------------|
R-|----x---x---x---|----------------|----------------|----------------|
S-|--------o-------|----ooo-o-o-o---|----------------|----------------|
F-|----------------|--------------o-|----------------|----------------|
B-|o-----oo------o-|o---------------|o-------o-------|o---------------|

C-|x-------x-------|x---------------|
B-|o-------o-------|o---------------|

END

Tap to rate this tab
# A B C D E F G H I J K L M N O P Q R S T U V W X Y Z