Song name
# A B C D E F G H I J K L M N O P Q R S T U V W X Y Z

Treble Charger - Business drum

artist: Trble charger
Song: Business
Album: Wide awake bored
Timing:4/4

I'm to to sure about this but stile, I think most of it is right.
Have fun...


C:Cymbals      -c-  Is other cymbal
R:Ride cymbal
H:Hihat        -X- Loose Hihat
T:Tom
F:Floor tom
S:Snare drum  -g-gost note  -d- double stroke role
B:Bass drum


Proverse1
  |-------3x-------|
H-|----------------|--------------X-|
S-|----------------|------------f---|
B-|----------------|--------------o-|

H-|x-x-x-x-x-x-x-x-|x-x-x-x-x-x-x-x-|x-x-x-x-x-x-x-x-|x-x-x-x-x-X---X-|
S-|----o-------o---|----o-------o---|----o-------o---|----o-------f---|
B-|o---------------|----------------|----------------|--------------o-|


Verse 1                                               ________________
                                                     |1.              |
H-|x-x-x-x-x-x-x-x-|x-x-x-x-x-x-x-X-|x-x-x-x-x-x-x-x-|x-x-x-x-x-x-x-X-|
S-|----o-------o---|----o-------o---|----o-------o---|----o-------o---|
B-|o-o-----------o-|--o-----------o-|o-o-----------o-|--o-----------o-|
   ________________
  |2.              |
H-|x-x-x-x-X-------|
T-|--------------o-|
S-|----o-------oo--|
B-|--o-----o-------|


Prochorus(Hihat Loose)Not shure
  
  |---------------3-x---------------|
C-|x---------------|----------------|x---------------|----------------|
H-|----x---x---x---|x---x---x---x---|----x---x---x--X|----------------|
S-|----o--d----o---|----o-------o---|----o--d----o---|---o-o-o-o-ooooo|
B-|o-------o-o---o-|--o---o---o---o-|o-------o-o----o|---o-o-o-o------|


Chorus
  |---------------3-x---------------|
C-|x---------------|----------------|x---------------|
R-|--x-x-x-x-x-x-x-|x-x-x-x-x-x-x-x-|----------------|
H-|----------------|----------------|--------------X-|
S-|----o-------o---|----o-------o---|------------f---|
B-|o-----o---o---o-|--o---o---o---o-|o-------------o-|


Proverse 2

H-|x-x-x-x-x-x-x-x-|x-x-x-x-x-x-x-x-|x-x-x-x-x-x-x-x-|x-x-x-x-x-X---X-|
S-|----o-------o---|----o-------o---|----o-------o---|----o-------f---|
B-|o-------------o-|--o-------------|----------------|--------------o-|


Verse 2

H-|x-x-x-x-x-x-x-x-|x-x-x-x-x-x-x-X-|x-x-x-x-x-x-x-x-|x-x-x-x-x-x-x-X-|
S-|----o-------o---|----o-------o---|----o-------o---|----o-------o---|
B-|o-o-------o---o-|--o-----------o-|o-o-----------o-|--o-----------o-|
       
H-|x-x-x-x-x-x-x-x-|x-x-x-x-x-x-x-X-|x-x-x-x-x-x-x-x-|x-x-x-x-X-------|
T-|----------------|----------------|----------------|--------------o-|
S-|----o-------o---|----o-------o---|----o-------o---|----o-------oo--|
B-|o-o-----------o-|--o-----------o-|o-o-----------o-|--o-----o-------|


Repeat prochorus for prochorus 2


Chorus 2

  |---------------3-x---------------|
C-|x---------------|----------------|#-------X-x-x-x-|
R-|--x-x-x-x-x-x-x-|x-x-x-x-x-x-x-x-|----------------|
H-|----------------|----------------|----------------|
S-|----o-------o---|----o-------o---|------------o--d|
B-|o-----o---o---o-|--o---o---o---o-|o-------o-------|

Interlude (also guitar solo)

C-|x-x-x-x-x-x-x-x-|x-x-x-x-x-x-x-x-|x-x-x-x-x-x-x-x-|x-x-x-x-x-x-x-x-|
S-|----o-------o---|----o-------o--d|----o-------o---|----o-------o--d|
B-|o-o---o---o---o-|o-o---o-o-------|o-o---o---o---o-|o-o---o-o-------|

C-|x-x-x-x-x-x-x-x-|x-x-x-x-x-x-x-x-|x-x-x-x-x-x-x---|--------X-x-x-x-|
T-|----------------|----------------|--------------o-|o-----o---------|
S-|----o-------o---|----o-------o--d|----o-------oo--|--ooo-------o--d|
B-|o-o---o---o---o-|o-o---o-o-------|o-o---o---o-----|--------o-------|

C-|x-x-------------|
S-|----o-o-o-o-oooo|
B-|o-o-o-o-o-o-----|


Chorus 3 (End)
                                                      ________________
  |---------------3-x---------------|                |1.              |
C-|x---------------|----------------|x---------------|x---------------|
R-|--x-x-x-x-x-x-x-|x-x-x-x-x-x-x-x-|--x-x-x-x-x-x-x-|--x-x-x---------|
S-|----o-------o---|----o-------o---|----o-------o---|----o-----oooooo|
B-|o-------o-o---o-|--o---o---o---o-|o-----o---o---o-|o-----o---------|
   ________________
  |2.              |
C-|----------------|
R-|x-x-x-x-x-------|
T-|-------------o--|
S-|----o-----ooo---|
B-|o-----o---------|

C-|x---------------|----------------|x---------------|----------------|
R-|--x-x-x-x-x-x-x-|x-x-x-x-x-x-x-x-|--x-x-x-x-x-x-x-|x-x-x-x-x-------|
S-|----o-------o---|----o-------o---|----o-------o---|----o--------ooo|
F-|----------------|----------------|----------------|---------o-o----|
B-|o-------o-o---o-|--o---o---o---o-|o-----o---o---o-|o-----o--o-o----|

C-|x---------------|----------------|------x---------|----------------|
R-|--x-x-x-x-x-x-x-|x-x-x-x-x-x-x-x-|----------------|----------------|
S-|----o-------o---|----o-------o---|----------------|----------------|
F-|----------------|----------------|o---o-----------|----------------|
B-|o-------o-o---o-|--o---o---o---o-|o---o-o---------|----------------|

End
Tap to rate this tab
 
# A B C D E F G H I J K L M N O P Q R S T U V W X Y Z