Song name
# A B C D E F G H I J K L M N O P Q R S T U V W X Y Z

Treble Charger - Favorite Worst Enemy drum

artist: Trble charger
Song: Favorit worst enemy
Album: Wide awake bored
Timing:4/4


C:Cymbals      -c-  Is other cymbal
R:Ride cymbal
H:Hihat        -X- Loose Hihat or like a hit while it's open then close your hihat
T:Tom
F:Floor tom
S:Snare drum  -g-gost note  -d- double stroke role
B:Bass drum



T-|--oooooo--oooooo|
S-|oo------oo------|


Intro               ________________ ________________ ________________
                   |1.3.            |2.              |4.              |
C-|X-x-x-x-x-x-x-x-|x-x-x-x-x-x-x-x-|x-x-x-x-x-x-x-x-|----------------|
S-|----o--g----o---|----o--g----o---|----o--g----oooo|--o-o-o-o---o---|
B-|o-------o-o---o-|--o-----o-o---o-|--o-----o-o-----|--o-o-o-o-o---o-|


Verse 1
                   |-------2x-------|                |-------3x-------|
C-|x---------------|----------------|----------------|----------------|
H-|----x---x---x---|x---x---x---x---|x---x---x---x-X-|x---x---x---x---|
S-|----o-------o---|----o-------o---|----o-------o---|----o-------o---|
B-|o-----o-o-----o-|o-----o-o-----o-|o-----o-o-----o-|o-----o-o-----o-|

H-|x---x---x---X---|
S-|----o-------o---|
B-|o-----o-o-------|


Prochorus 1 (Loose hihat)
                   |-------2x-------|
C-|x---------------|----------------|x-------------x-|----------------|
H-|----X---X---X---|X---X---X---X---|----X---X---X---|X---X---X-----X-|
S-|----o-------o---|----o-------o---|----o-------o---|----o---o---f---|
B-|o-----o-o-----o-|o-----o-o-----o-|o-------o-o---o-|--o---o---o---o-|


Chorus 1 (Medium Loose)

  |---------------3-x---------------|
C-|x-------------x-|----------------|x-------------x-|----------------|
H-|----X---X---X---|X---X---X---X---|----X---X---X---|X---X---X-------|
T-|----------------|----------------|----------------|--------------o-|
S-|----o-------o---|----o-------o---|----o-------o---|----o-----ooo---|
B-|o-------o-o---o-|--o-----o-o-----|o-------o-o---o-|--o-----o-------|


Repeat verse 1 for verse 2


Repeat prochorus 1 for prochorus 2


Chorus 2 Pt1 (Loose hihat)

  |---------------3-x---------------|
C-|x-------------x-|----------------|x-------------x-|----------------|
H-|----X---X---X---|X---X---X---X---|----X---X---X---|X---X---X---X---|
S-|----o-------o---|----o-------o---|----o-------o---|----o-------o---|
B-|o-------o-o---o-|--o-----o-o-----|o-------o-o---o-|--o-----o-o-----|

H-|X---X-----------|
S-|----o---o-o-o-o-|
F-|--------o-o-o-o-|
B-|o---------------|


Chorus 3 Pt2 (Ride=Bell)
                                                      ________________
  |---------------3-x---------------|                |1.              |
C-|x---------------|----------------|x---------------|----------------|
R-|--x-x-x-x-x-x-x-|x-x-x-x-x-x-x-x-|--x-x-x-x-x-x-x-|x-x-x-x-x-x-x---|
S-|----o-------o---|----o-------o---|----o-------o---|----o---o---o-oo|
B-|o-------o-o---o-|--o-----o-o-----|o-------o-o---o-|--o-------o-----|
   ________________
  |2.              |
C-|----------------|
R-|x-x-x-x-x-x-x-x-|
S-|----o-------o---|
B-|--o-----o-o-----|


Interlude (Loose hitat)

  |---------------3-x---------------|
C-|X---------------|----------------|x---x---x---x---|x---x-----------|
H_|----X---X---X---|X---X---X---X---|----------------|----------------|
S-|----o-------o---|----o-------o---|o---o---o---o---|o---o---oooooooo|
B-|o-------o-o---o-|--o---o---o---o-|--o---o---o---o-|--o---o---------|


Guitar solo

  |-------8x-------|
C-|X-x-x-x-x-x-x-x-|----------------|
H-|----------------|X---X---X-----X-|
S-|----o--g----o---|----o---o---f---|
B-|o-------o-o---o-|o-----o---o---o-|


Chorus 4 Pt1

  |---------------3-x---------------|
C-|x-------------x-|----------------|x-------------x-|----------------|
H-|----X---X---X---|X---X---X---X---|----X---X---X---|X---X---X---X---|
S-|----o-------o---|----o-------o---|----o-------o---|----o-------o---|
B-|o-------o-o---o-|--o-----o-o-----|o-------o-o---o-|--o-----o-o-----|

C-|x---------------|----------------|
H-|----X---X---X---|----------------|
S-|----o-------o---|o---------------|
F-|----------------|o---------------|
B-|o-------o-o---o-|----------------|


Repeat chorus 3 Pt3 for Chorus 4 Pt2 (Last measure is diffrent)
(Last measure)
   ________________
  |2.              |
C-|----------------|
R-|x-x-x-x-x-x-x-x-|
S-|----o-----o-o---|
F-|----------o-o---|
B-|--o-----o-------|


Guitar solo 2

  |-------6x-------|
T-|----------------|--o-o---o-o-----|
S-|----------------|oo----oo----oooo|


Outro
                                                      
  |---------------3-x---------------|               
C-|x---------------|----------------|x---------------|----------------|
R-|--x-x-x-x-x-x-x-|x-x-x-x-x-x-x-x-|--x-x-x-x-x-x-x-|x-x-x-x-x-------|
T-|----------------|----------------|----------------|--------------oo|
S-|----o-------o---|----o-------o---|----o-------o---|----o-----oooo--|
B-|o-------o-o---o-|--o-----o-o-----|o-------o-o---o-|--o-----o-------|
  
         
C-|x---------------|----------------|x---------------|----------------|
R-|--x-x-x-x-x-x-x-|x-x-x-x-x-x-x-x-|--x-x-x-x-x-x-x-|x-x-x-x-x-x-x---|
S-|----o-------o---|----o-------o---|----o-------o---|----o-------o-oo|
B-|o-------o-o---o-|--o-----o-o---o-|o-------o-o---o-|--o-----o-o-----|
  
C-|x---------------|----------------|x---------------|----------------|
R-|--x-x-x-x-x-x-x-|x-x-x-x-x-x-x-x-|--x-x-x-x-x-x-x-|----------------|
T-|----------------|----------------|----------------|--o-o---o-o---oo|
S-|----o-------o---|----o-------o---|----o-------o---|oo----oo----oo--|
B-|o-------o-o---o-|--o-----o-o---o-|o-------o-o---o-|----------------|

  |---------------2-x---------------|
C-|x---------------|----------------|
R-|--x-x-x-x-x-x-x-|x-x-x-x-x-x-x-x-|
S-|----o-------o---|----o-------o---|
B-|o-------o-o---o-|--o-----o-o---o-|

FADE OUT AFTER THAT


END
Tap to rate this tab
 
# A B C D E F G H I J K L M N O P Q R S T U V W X Y Z