Treble Charger - Kareen chords

Highlighted       Show chord diagrams
Treble Charger
Kareen
Maybe It's Me
1997
Submittedby: paramore_fans@yahoo.com

Key: F, D

Tuning: Standard EADGBe

Chords used:
Dm -   xx0231
C -    x32010
Bb -   x13331
F -    133211
D -    xx0232
Eb -   x68866
Em -   022000
G -    320033
D/F# - 2x023x


Intro: Dm--C-F-Bb--C--Dm--C-Eb-Bb x2
Dm-Bb-A--D-Bb-A

Guitar 2: on second turn
e|----12-10------------------12-10---------------------|
B|-10-------11-10-------10---------11-10------------10-|
G|----------------10---------------------10-----12-----|
D|-------------------12---------------------12---------|
A|-----------------------------------------------------|
E|-----------------------------------------------------|


Verse 1:
       Dm       Bb  A
You're dragging me along
  D      Bb     A
I cannot hold it
    Dm       Bb       A
You say it's what you are
     D        Bb      A
Your staring scares me


In this part, Basslines plays only Dm all the way
  Dm  Bb
Antagonize your
A
fears your longing
       Dm      Bb
You're setting out
     A
your fears you're falling


Refrain:
F           Em
  I turn my back on you
       A                 G
You're far too clever now


Chorus 1:
C G D          C
     Kareen is calling
G       D
out her name
         Bb
She disappeared
  G         D
beneath her pain
            F        G D
But noone's listening
        F        G D
Noone's listening


Post Chorus 1: Mini Solo
Bb--G--, Dm-Bb-A--D-Bb-A--

Guitar 2: Post Chorus 1:
e|----------|
B|-6--8--10-|
G|----------|
D|----------|
A|----------|
E|----------|


Verse 2:
  Dm    Bb     A
I contradict myself
    D       Bb     A
You did not need it
    Dm      Bb        A
You gave up from the start
   D            Bb       A
So where's that leave me?


In this part, Basslines plays only Dm all the way
    Dm       Bb
And what I'd like
   A
to know is easy
   Dm        Bb
If it's your right
     A
than don't believe me


(Repeat Refrain)
(Repeat Chorus 1)


Post Chorus 2: Mini Solo
Bb--A--

Guitar 2: Post Chorus 2:
e|------|
B|-6--5-|
G|------|
D|------|
A|------|
E|------|


Bridge:
G                D/F#
Reckless leap to try once more
     F                Em
It's really not that strange
       Eb           Bb
You'll learn to be adored
           Dm   Bb   A Dm Bb A
And not to be ashamed


Guitar Solo: Dm-Bb-A-- x4, F--Em--A--G--


Chorus 2:
C G D          C
     Kareen is calling
G       D
out her name
         Bb
She disappeared
  G         D
beneath her pain
            F        G D
But noone's listening
        F        G D
Noone's listening
            F        G D
But noone's listening
        F        G D
Noone's listening


Outro: Guitar Solo

x2

Guitar 2: Solo x2
e|------------------------------------------------------------------------|
B|-10-10-10-10-10--------------------------10-10--------------------------|
G|----------------12-11-9------------9/12--------12-11--9------------9/12-|
D|-------------------------12--9-12------------------------12--9-12-------|
A|------------------------------------------------------------------------|
E|------------------------------------------------------------------------|

e|-10-10-10-10-10-10-10-10-------------------------|
B|-------------------------------------------------|
G|-------------------------------------------------|
D|-------------------------12-12-12-12-12-12-12-12-|
A|-------------------------------------------------|
E|-------------------------------------------------|
Tap to rate this tab
 
# A B C D E F G H I J K L M N O P Q R S T U V W X Y Z