Guitaretab - guitar tabs
Song name
# A B C D E F G H I J K L M N O P Q R S T U V W X Y Z

Treble Charger - Friend Of Mine chords

Highlighted       Show chord diagrams
Treble Charger
Friend Of Mine
Maybe It's Me
1997
Submitted by: paramore_fans@yahoo.com

Key: F

Tuning: Standard EADGBe

Chords used:
F -  133211
Eb - x68886
Bb - x13331
C -  x32010
Am - x02210


Intro: F-Eb-Bb-C- x2, F--Bb--


Verse 1:
F
Funny tortured mind
           Bb
It happens all the time
     F
It's not too encouraging
          Bb
You never prayed for anything
F
What makes you so great
          Bb
Something I would indicate
    F
The lamest stand
The strongest can't
         Bb
help the similiarties


Refrain:
Am                Bb
  Doesn't seem at all severe
F                C
  Is it fair now? Does it matter?
Am                   Bb
  Backwards through another year
     F
I'll come down soon
              C       Bb
Don't tell me what to do


Guitar 2: Refrain
     Am         Bb        F         C
e|-5-------|-5-------|-5-------|---------|
B|----5----|----6----|----6----|-8--5----|
G|-------5-|-------5-|-------5-|-------5-|
D|---------|---------|---------|---------| x2
A|---------|---------|---------|---------|
E|---------|---------|---------|---------|

      Bb       C
e|-5-5-5-5-5-|-17-|
B|-6-6-6-6-6-|----|
G|-5-5-5-5-5-|----|
D|-----------|----|
A|-----------|----|
E|-----------|----|

[ Tab from: http://www.guitaretab.com/t/treble-charger/229948.html ]
Chorus 1:
F              C
  I'll make no claim
        Bb
on your design
           C
I will not call
                F
you a friend of mine
         C
I cannot follow
        Bb
your disguise
I will not
C
  I will not


(Repeat Intro)


Verse 2:
    F
I'm not sure what you say
          Bb
Makes any difference anwyay
F
Tell me what you mean
         Bb
With any hope of coming clean
     F
It's brought to you too late now
    Bb
But I appreciate
    F
the never-ending sameness
          Bb               C
We've had days like this before


(Repeat Chorus 1)


Interlude: F-Eb-Bb-C- x2


Guitar Solo: Eb--Bb--F--C--Eb--C--Bb--C--

Guitar 2: Solo
      Eb         Bb         F           C
e|----------|---------|-5--5-----|-------8-----|
B|-8--8-6---|-6-----6-|------8-6-|-5-6-8---5---|
G|--------8-|----7----|----------|-----------5-|
D|----------|---------|----------|-------------|
A|----------|---------|----------|-------------|
E|----------|---------|----------|-------------|

      Eb         C             Bb                C
e|----------|---------|-5-----3---------|-5-----3---------|
B|-8--8-6---|-5--6--8-|---6-----6---6---|---6-----6---6---|
G|--------8-|---------|-----5-----5---5-|-----5-----5---5-|
D|----------|---------|-----------------|-----------------|
A|----------|---------|-----------------|-----------------|
E|----------|---------|-----------------|-----------------|


(Repeat Chorus 1)


Chorus 2:
F            C
  I will not call
                Bb
you a friend of mine
           C
I will not call
                F
you a friend of mine
           C
I will not call
                Bb
you a friend of mine
I will not
C
  I will not


Outro:

Guitar Solo: F--C--Bb--C-- x4
Related for Friend Of Mine chords
Friend Of Mine chords by Treble Charger