Song name
# A B C D E F G H I J K L M N O P Q R S T U V W X Y Z

Treble Charger - American Psycho tab

standard tuning and everything.



                          intro
|------------------------------------------------------------
|------------------------------------------------------------
|---------6--7--7--7--------7--6--6--6--------6--7--7--7--/--
|---7--7--6--7--7--7--9--9--7--6--6--6--7--7--6--7--7--7-/---
|---7--7--4--5--5--5--9--9--5--4--4--4--7--7--4--5--5--5/----
|---5--5--------------7--7--------------5--5-----------------


                 solo after intro
|--------------------------------------------------------------------
|------------10--9--7------------------------------------------------
|---------6------------9----9-11-9-11-9-11-9-----------9/11--9-------
|---7--9--------------------------------------11p9--7-----------11---
|--------------------------------------------------------------------
|--------------------------------------------------------------------


                  verse 2 or 3x i forget

|--------------------------------------------------
|--------------------------------------------------
|--------------------------7--7--7--7--7--7--7--7--
|--7--7--7--7--7--7--7--7--7--7--7--7--7--7--7--7--
|--7--7--7--7--7--7--7--7--5--5--5--5--5--5--5--5--
|--5--5--5--5--5--5--5--5--------------------------
pm .  .  .  .  .  .  .  .  .  .  .  .  .  .  .  .

|--------------------------------------------------
|--------------------------------------------------
|--------------------------7--7--7--7--------------
|--4--4--4--4--4--4--4--4--7--7--7--7--------------
|--4--4--4--4--4--4--4--4--5--5--5--5--9--9--9--9--
|--2--2--2--2--2--2--2--2--------------7--7--7--7--
pm .  .  .  .  .  .  .  .  .  .  .  .  .  .  .  .



                         pre chorus
|----------------------------------------------------------------
|----------------------------------------------------------------
|--8h9p8--6----------------------6--8h9p8--6--------4--5--7------
|------------9--8---8h9p8--6--4---------------9--8--4--5--7------
|---------------------------------------------------2--3--5------
|----------------------------------------------------------------



                          chorus 2x
|--------------------------------------------------
|--------------------------------------------------
|--------------------------9--9--9--9--9--9--9--9--
|--7--7--7--7--7--7--7--7--9--9--9--9--9--9--9--9--
|--7--7--7--7--7--7--7--7--7--7--7--7--7--7--7--7--
|--5--5--5--5--5--5--5--5--------------------------


|--------------------------------------------------
|--------------------------------------------------
|--11-11-11-11-11-11-11-11-7--7--7--7--7--7--7--6--
|--11-11-11-11-11-11-11-11-7--7--7--7--7--7--7--6--
|--9--9--9--9--9--9--9--9--5--5--5--5--5--5--5--4--
|--------------------------------------------------

well thats basically it...
theres is a small little part that goes over the intro chords in the middle
of the song but its really pointless so im not gonna put it in.
any issues, want the pointless part or whatever e-mail me at meadowskid@hotmail.com.
Tap to rate this tab
 
# A B C D E F G H I J K L M N O P Q R S T U V W X Y Z