Song name
# A B C D E F G H I J K L M N O P Q R S T U V W X Y Z

Treble Charger - Hundred Million tab

Treble charger
Hundred million
detox

intro
---------------------------------------------|
---------------------------------------------|
---------------------------------------------|
---------------------------------------------|
-----7-6--3-4---3-4--3-4--3-4----------------|
-0-0-----0----0------------------------------|4x

verse:pm
------------------------------------------------------|
------------------------------------------------------|
------------------------------------------------------|
------------------------------------------------------|
---------------55-------------------------------------|
-5-5-5--33-555----------------------------------------|4x

pre-chorus
----------------------------------------------------|
-7-7-7-7-9-7-9--11----------------------------------|
----------------------------------------------------|
----------------------------------------------------|
----------------------------------------------------|
----------------------------------------------------|4x

chorus
------------------------------------------------------|
------------------------------------------------------|
------------------------------------------------------|
------------------------------------------------------|
--7-5-7-5---5-3-5-3---7-5-7-5-------------------------|
5---------5---------3---------5-----------------------|2x
intro 2x
verse
pre-chorus
chorus
------------------------------------------------------|
------------------------------------------------------|
------------------------------------------------------|
------------------------------------------------------|
-777777777----543-------------------------------------|
-----------00----555755-------------------------------|4x

---------------------------------------------------|
---5-4-5-------------------------------------------|
---------4-----------------------------------------|
---------------------------------------------------|
-----------555-------------------------------------|
---------------------------------------------------|5x
chorus
intro 2x
Tap to rate this tab
 
# A B C D E F G H I J K L M N O P Q R S T U V W X Y Z