Song name
# A B C D E F G H I J K L M N O P Q R S T U V W X Y Z

Treble Charger - Even Grable chords

Highlighted       Show chord diagrams
Treble Charger
Even Grable
Self=Title(1996)
Tabbed by:Fuse49

Play F like this: x33210

Intro:

Greig: G,A,B,C x2

Bill:

e|----------------------------------------------------------|
B|-12-15-12-10-8--10-8--10---12-15-12-10-8--10-8--5---------|
G|-14-17-14-12-10-12-10-12---14-17-14-12-10-12-10-7----x2---|
D|----------------------------------------------------------|
A|----------------------------------------------------------|
E|----------------------------------------------------------|



First Verse:

G      A          B
This time, who knows
           C           G
You can do better than me
         A        B
You'll see, it shows
        C            G
Is that you tried to leave
        A
I wanna go somewhere
B          C       G
I've never been anywhere
           A
Why do you yell at me
B             C
You're always yelling


Chorus:

C
I've finally found
       G
That I tried to look down
         F
What I'd live for
C                  G
That's far astray, it's like today
F
What's there to say
C
Your reason's sound
            G
And there's noone around
         F
That I'd live for
C
You're gone away
G                 F
Not meant to stay away


Post chorus:

Greig: G,C x2

Bill:

e|---------------------------------|
B|---3-3-3-5-5-5-3-3-3-5-5-5-------|
G|---0-0-0-0-0-0-0-0-0-0-0-0---x2--|
D|---------------------------------|
A|---------------------------------|
E|---------------------------------|

Repeat intro riff

2nd verse:

G       A
I feel you try
B              C            G
There's enough light in the way
       A
It takes more time
B        C             G
Than you allowed me to say
       A
I feel so sorry
B        C
So friendly it hurts
G       A                 B           C
Need to speak when you're yelling and yelling


Chorus:

C
I've finally found
       G
That I tried to look down
         F
What I'd live for
C                  G
That's far astray, it's like today
F
What's there to say
C
Your reason's sound
            G
And there's noone around
         F
That I'd live for
C
You're gone away
G                 F
Not meant to stay away


Outro:

C                     G        F
I finally fell when I tried to look down
C          G           F
That's far astray like today
C                              G     F
Your reasons sound and there's noone out there


Fades to end: C,G,F
Tap to rate this tab
# A B C D E F G H I J K L M N O P Q R S T U V W X Y Z