Song name
# A B C D E F G H I J K L M N O P Q R S T U V W X Y Z

Treble Charger - Bubble And Star tab

Treble Charger-"Bubble and Star (Here's Where the Guitars Come In"
from the album "More of Our Stupid Noise", Squirtgun Records
words and music by Greig Nori, Rosie Martin, Bill Priddle,
		   Morris Palter
tabbed by: Jd Dude

Intro-Fig. 1
Gtr. 1 w/ dist
Play twice
|-----------------------------------------------------------|
|----------------------------------------------5----5---5---|
|----------------------------------------------7^9-(9)-(9)--|
|-5--x--5-5-5-x-x-7--x--7-7-7-x-x-5--x--5-5-5---------------|
|-5--x--5-5-5-x-x-7--x--7-7-7-x-x-5--x--5-5-5---------------|
|-3--x--3-3-3-x-x-5--x--5-5-5-x-x-3--x--3-3-3---------------|

|-----------------------------------------------------------|
|--5---5---5---5--------------------------------------------|
|-(9)-(9)-(9)-(9)^(7)---------------------------------------|
|-----------------------------------------------------------|
|-----------------------------------------------------------|
|-----------------------------------------------------------|

Gtr. 2 w/ dist
|-----------------------------------------------------------|
|-----------------------------------------------------------|
|----------------------------------------------4-4-4-4-4-5-7|
|-5--x--5-5-5-x-x-7--x--7-7-7-x-x-5--x--5-5-5---------------|
|-5--x--5-5-5-x-x-7--x--7-7-7-x-x-5--x--5-5-5---------------|
|-3--x--3-3-3-x-x-5--x--5-5-5-x-x-3--x--3-3-3---------------|

|-----------------------------------------------------------|
|-----------------------------------------------------------|
|-9---7-7\(4)-4\(2)--2-2--0--2--0-0---4-4-4-4-4-5-7---------|
|-----------------------------------------------------------|
|-----------------------------------------------------------|
|-----------------------------------------------------------|


Verse-Fig. 2
Gtr. 1+2 w/ dist
Play four times
|-----------------------------------------------------------|
|-----------------------------------------------------------|
|-----------------------------------------------------------|
|-5--x--5-5-5-x-x-7--x--7-7-7-x-x---------------------------|
|-5--x--5-5-5-x-x-7--x--7-7-7-x-x---------------------------|
|-3--x--3-3-3-x-x-5--x--5-5-5-x-x---------------------------|


Prechorus-Fig. 3
Gtr. 1 w/ dist
|-----------------------------------------------------------|
|-----------------------------------------5------5---5---5--|
|-2---4-4---7--7-9-9-12--14-14-16-16--\7--7^(9)-(9)-(9)-(9)-|
|-----------------------------------------------------------|
|-----------------------------------------------------------|
|-----------------------------------------------------------|

|-----------------------------------------------------------|
|--5---5---5---------------------------------------5------5-|
|-(9)-(9)-(9)^(7)--2---4-4---7--7-9-9-12-11--7-7-0-7^(9)-(9)|
|-----------------------------------------------------------|
|-----------------------------------------------------------|
|-----------------------------------------------------------|

|-----------------------------------------------------------|
|--5---5---5---5---5----------------------------------------|
|-(9)-(9)-(9)-(9)-(9)^(7)-----------------------------------|
|-----------------------------------------------------------|
|-----------------------------------------------------------|
|-----------------------------------------------------------|


Chorus-Fig. 4
Gtr. 1 w/ dist
|-----------------------------------------------------------|
|-----------------------------------------------------------|
|-7-7-7-7-7-7-7-7-9-9-9-9-9-9-9-9-5-5-5-5-5-5-5-5--5--4--5--|
|-7-7-7-7-7-7-7-7-9-9-9-9-9-9-9-9-5-5-5-5-5-5-5-5-----------|
|-5-5-5-5-5-5-5-5-7-7-7-7-7-7-7-7-3-3-3-3-3-3-3-3-----------|
|-----------------------------------------------------------|

|-----------------------------------------------------------|
|-----------------------------------------------------------|
|-4--7-7-7-7-7-7-7-7-9-9-9-9-9-9-9-9-5-5-5-5-5-5-5-5--5--4/-|
|----7-7-7-7-7-7-7-7-9-9-9-9-9-9-9-9-5-5-5-5-5-5-5-5--------|
|----5-5-5-5-5-5-5-5-7-7-7-7-7-7-7-7-3-3-3-3-3-3-3-3--------|
|-----------------------------------------------------------|

|-----------------------------------------------------------|
|-----------------------------------------------------------|
|-9--7--7-7-7-7-7-7-7-7-9-9-9-9-9-9-9-9-5-5-5-5-5-5-5-5--5--|
|-------7-7-7-7-7-7-7-7-9-9-9-9-9-9-9-9-5-5-5-5-5-5-5-5-----|
|-------5-5-5-5-5-5-5-5-7-7-7-7-7-7-7-7-3-3-3-3-3-3-3-3-----|
|-----------------------------------------------------------|

|-----------------------------------------------------------|
|-----------------------------------------------------------|
|-4--5--4--7-7-7-7-7-7-7-7-9-9-9-9-9-9-9-9-5-5-5-5-5-5-5-5--|
|----------7-7-7-7-7-7-7-7-9-9-9-9-9-9-9-9-5-5-5-5-5-5-5-5--|
|----------5-5-5-5-5-5-5-5-7-7-7-7-7-7-7-7-3-3-3-3-3-3-3-3--|
|-----------------------------------------------------------|

|-----------------------------------------------------------|
|-----------------------------------------------------------|
|-5--4--3--2--3--2------------------------------------------|
|-5--4--3--2--3--2--6--5------------------------------------|
|-3--2--1--0--1--0--6--5------------------------------------|
|-------------------4--3------------------------------------|

Gtr. 2 w/ dist
|-----------------------------------------------------------|
|-----------------------------------------------------------|
|-7-7-7-7-7-7-7-7-9-9-9-9-9-9-9-9-5-5-5-5-5-5-5-5-5-5-5-5-5-|
|-7-7-7-7-7-7-7-7-9-9-9-9-9-9-9-9-5-5-5-5-5-5-5-5-5-5-5-5-5-|
|-5-5-5-5-5-5-5-5-7-7-7-7-7-7-7-7-3-3-3-3-3-3-3-3-3-3-3-3-3-|
|-----------------------------------------------------------|

|-----------------------------------------------------------|
|-----------------------------------------------------------|
|-5-5-5-7-7-7-7-7-7-7-7-9-9-9-9-9-9-9-9-5-5-5-5-5-5-5-5-5-5-|
|-5-5-5-7-7-7-7-7-7-7-7-9-9-9-9-9-9-9-9-5-5-5-5-5-5-5-5-5-5-|
|-3-3-3-5-5-5-5-5-5-5-5-7-7-7-7-7-7-7-7-3-3-3-3-3-3-3-3-3-3-|
|-----------------------------------------------------------|

|-----------------------------------------------------------|
|-----------------------------------------------------------|
|-5-5-5-5-5-5-7-7-7-7-7-7-7-7-9-9-9-9-9-9-9-9-5-5-5-5-5-5-5-|
|-5-5-5-5-5-5-7-7-7-7-7-7-7-7-9-9-9-9-9-9-9-9-5-5-5-5-5-5-5-|
|-3-3-3-3-3-3-5-5-5-5-5-5-5-5-7-7-7-7-7-7-7-7-3-3-3-3-3-3-3-|
|-----------------------------------------------------------|

|-----------------------------------------------------------|
|-----------------------------------------------------------|
|-5-5-5-5-5-5-5-5-5-7-7-7-7-7-7-7-7-9-9-9-9-9-9-9-9-5-5-5-5-|
|-5-5-5-5-5-5-5-5-5-7-7-7-7-7-7-7-7-9-9-9-9-9-9-9-9-5-5-5-5-|
|-3-3-3-3-3-3-3-3-3-5-5-5-5-5-5-5-5-7-7-7-7-7-7-7-7-3-3-3-3-|
|-----------------------------------------------------------|

|-----------------------------------------------------------|
|-----------------------------------------------------------|
|-5-5-5-5--5--4--3--2--3--2---------------------------------|
|-5-5-5-5--5--4--3--2--3--2--6--5---------------------------|
|-3-3-3-3--3--2--1--0--1--0--6--5---------------------------|
|----------------------------4--3---------------------------|
Tap to rate this tab
# A B C D E F G H I J K L M N O P Q R S T U V W X Y Z