Song name
# A B C D E F G H I J K L M N O P Q R S T U V W X Y Z

Treble Charger - Half Down tab

Treble Charger-"Half Down"
from the album "Self=Title", 1996.
words and music by Greig Nori, Rosie Martin, Bill Priddle,
		   Morris Palter
tabbed by: Jd Dude


Fig. 1
Gtr. 1 accoustic
|-0----0-0-0-0----0-0---3----3-3-3-0----0-0-0--------------|
|-0----0-0-0-1----1-1-0-0----0-0-0-3----3-3-0--------------|
|-0----0-0-0-0----0-0-0-0----0-0-0-2----2-2-0--------------|
|-2----2-2-0-2----2-2-0-0----0-0-0-0----0-0-0--------------|
|-2----2-2-0-3----3-3-0-2----2-2-0-------------------------|
|-0----0-0-0------------3----3-3-0-------------------------|

Gtr. 2 w/ tremolo
|-0----------0----------3----------0-----------------------|
|-0----------1----------0----------3-----------------------|
|-0----------0----------0----------2-----------------------|
|-2----------2----------0----------0-----------------------|
|-2----------3----------2----------------------------------|
|-0---------------------3----------------------------------|


Fill 1
Gtr. 3
|---------------|------------------------------------------|
|---------------|------------------------------------------|
|-5-5---5-5-4---|------------------------------------------|
|---------------|------------------------------------------|
|---------------|------------------------------------------|
|---------------|------------------------------------------|


Fig. 2
Gtr. 1 accoustic
Play twice
|---------------------0----0-0--0--0---3----3-3---0--0--0--|
|-5----5-5-0-4--4--4--1----1-1--1--1-0-0----0-0-0-2--2--2--|
|-4----4-4-0-4--4--4--0----0-0--0--0-0-0----0-0-0-2--2--2--|
|-2----2-2-0-4--4--4--2----2-2--2--2-0-0----0-0-0-2--2--2--|
|-2----2-2-0-2--2--2--3----3-3--3--3-0-2----2-2-0-0--0--0--|
|--------------------------------------3----3-3------------|

|----------------------------------------------------------|
|-4----4-4--4--4-------------------------------------------|
|-4----4-4--4--4-------------------------------------------|
|-4----4-4--4--4-------------------------------------------|
|-2----2-2--2--2-------------------------------------------|
|----------------------------------------------------------|

Gtr. 2 w/ tremolo
Play twice
|----------------------------------------------------------|
|----------------------------------------------------------|
|-9---------4---------5---------5--------------------------|
|-9---------4---------5---------5---------5---------7------|
|-7---------2---------3---------3---------5---------7------|
|-7---------2---------3---------3---------3---------5------|

|----------------------------------------------------------|
|----------------------------------------------------------|
|---4------------------------------------------------------|
|---4------------------------------------------------------|
|---2------------------------------------------------------|
|---2------------------------------------------------------|
Tap to rate this tab
# A B C D E F G H I J K L M N O P Q R S T U V W X Y Z