Song name
# A B C D E F G H I J K L M N O P Q R S T U V W X Y Z

Treble Charger - Case In Fact tab

I was looking at the Intro tab of Case In Fact, and I couldn't help but notice that its a bit screwy.
I got it to my teacher to fix it up a bit.
Heres the better tab, the rest of the song can be found at this link
http://911tabs.com/link/?310929
Winno winnong@hotmail.com

Tuning: Standard (EADGBE)

  Intro:                                               
E|--------------------------------------|                
B|---1-3-1-------0----------1-----------|                
G|---------0-2-2---2-0-0--0---0--0---0--|                
D|----------------------3---------------|<-3 is optional 
A|-3---------0-0------------------------|                
E|--------------------------------------|                

  After Intro:
E|------------|
B|------------|
G|------------|
D|-1-1-0---0--|
A|-------3----|
E|------------|

Well, hope that gives you a better intro for Case In Fact.
Winno winnong@hotmail.com
Tap to rate this tab
 
# A B C D E F G H I J K L M N O P Q R S T U V W X Y Z