Song name
# A B C D E F G H I J K L M N O P Q R S T U V W X Y Z

Treble Charger - Soaker tab

This is the rest of the tab for Soaker, Enjoy
99% correct (except I don't know the scratchy effects pedal bits)

Soaker - Treble Charger - nc17

Intro (Both Guitars, I think):
E|---------------------------------|
B|---------------------------------|
G|---------------------------------|
D|-4-6-6-4-6-6-4--6--6-6-7-7-6-4-2-|
A|---------------------------------|
E|---------------------------------|

Verse (Lead):
E|------------------------------|
B|-------------10--10--10-10-10-|
G|------------------------------|
D|-9--9--9-9-9------------------|
A|-7--7--7-7-7------------------|
E|------------------------------|

Verse (Rhythm):
E|-------------------------|
B|-------------------------|
G|-------------------------|
D|-4--4--4-4-4-5--5--5-5-5-|
A|-5--5--5-5-5-5--5--5-5-5-|
E|-4--4--4-4-4-4--4--4-4-4-|

Riff (Lead):
E|-----------2--4-7-4-|-7b-----4b-|
B|-2--4-2-4-5---------|-----------|
G|--------------------|-----------|
D|--------------------|-----------|
A|--------------------|-----------|
E|--------------------|-----------|

Chorus (Both):
E|-------------------------------------------|
B|-------------------------------------------|
G|-------------------------------------------|
D|---------------------7-7-7-7-7-7-9-9-9-9-9-|
A|-9-9-9-9-9-9-9-9-9-9-5-5-5-5-5-5-7-7-7-7-7-|
E|-7-7-7-7-7-7-7-7-7-7-----------------------|

E|-------------------------------------------|
B|-------------------------------------------|
G|-------------------------------------------|
D|-------------------------------------------|
A|-9-9-9-9-9-9-9-9-9-9-6-6-6-6-6-6-7-7-7-7-7-|
E|-7-7-7-7-7-7-7-7-7-7-4-4-4-4-4-4-5-5-5-5-5-|

ORDER:

Intro

Verse (Both)

Riff (Intro in the Background)

Intro

Verse (Both)

Chorus

Riff

Scratchy Stuff

Verse (Both Play Rhythm, Clean)

Verse (Both)

Chorus

Riff


Well, thats my tab of Soaker, any questions and such, email winnorulz@hotmail.com
Tabbed by Winno winnorulz@hotmail.com


Tap to rate this tab
# A B C D E F G H I J K L M N O P Q R S T U V W X Y Z