Song name
# A B C D E F G H I J K L M N O P Q R S T U V W X Y Z

Treble Charger - Tired Of It Anyway tab

Treble charter – tired of it anyway

Guitar 1
|----------------------------------------------------------------|
|----------------------------------------------------------------|
|----------------------------------------------------------------|
|--7-7----4-4-------5-5-------8--10-10-11-11-9-9-9---------------|
|--7-7----4-4-------5-5-------8--10-10-11-11-9-9-9---------------|
|--5-5----2-2-------3-3-------6--8--8--9--9--7-7-7---------------|
guitar2                                     X2                           
                                               
|----------------------------------------------------------------|
|----------------------------------------------------------------|
|------7/6-----5/7------7/6----2--44--55---333-------------------|
|----------------------------------------------------------------|
|----------------------------------------------------------------|
|----------------------------------------------------------------|
	




Guitar1
|----------------------------------------------------------------|
|----------------------------------------------------------------|
|----------------------------------------------------------------|
|--7-7-7-7-7-7-7-7--5-5-5-5-5-5-5-5--4-4-4-4-4-4-4-4-4-4-4-4-4-4-|
|--7-7-7-7-7-7-7-7--5-5-5-5-5-5-5-5--4-4-4-4-4-4-4-4-4-4-4-4-4-4-|
|--5-5-5-5-5-5-5-5--3-3-3-3-3-3-3-3--2-2-2-2-2-2-2-2-2-2-2-2-2-2-|
Guitar2
|----------------------------------------------------------------|
|----------------------------------------------------------------|
|-55-44-55-77--—33-22-33-44---11-00-11-00-22-33-44-55------------|
|----------------------------------------------------------------|
|----------------------------------------------------------------|
|----------------------------------------------------------------|
Guitar1
|----------------------------------------------------------------|
|----------------------------------------------------------------|
|----------------------------------------------------------------|
|--7-7-7-7-7-7-7-7--5-5-5-5-5-5-5-5--4-4-4-4-4-4-4-4-4-4-4-4-4-4-|
|--7-7-7-7-7-7-7-7--5-5-5-5-5-5-5-5--4-4-4-4-4-4-4-4-4-4-4-4-4-4-|
|--5-5-5-5-5-5-5-5--3-3-3-3-3-3-3-3--2-2-2-2-2-2-2-2-2-2-2-2-2-2-|
Guitar2
|----------------------------------------------------------------|
|----------------------------------------------------------------|
|1010-99-1010-12-12---77-66-77-99---55-44-55-44-66-88-99-10/12-10|
|----------------------------------------------------------------|
|----------------------------------------------------------------|
|----------------------------------------------------------------|






Guitar2
|----------------------------------------------------------------|
|----------------------------------------------------------------|
|----------------------------------------------------------------|
|-7-7-7-7-7--4-4-4-4-4-4-4---9-9-9-9-9---7-7-7-7--6-6-6----X2----|
|-7-7-7-7-7--4-4-4-4-4-4-4---9-9-9-9-9---5-5-5-5--4-4-4----------|
|-5-5-5-5-5--2-2-2-2-2-2-2---7-7-7-7-7---------------------------|





Guitar1   Don't say it don't say it
|----------------------------------------------------------------|
|----------------------------------------------------------------|
|----------------------------------------------------------------|
|--6-6----4-4---9-9-9-9-9-9-9-7-7-7-7-7-7-7----------------------|
|--6-6----4-4---9-9-9-9-9-9-9-7-7-7-7-7-7-7----------------------|
|--4-4----2-2---7-7-7-7-7-7-7-5-5-5-5-5-5-5----------------------|
Guitar2
|----------------------------------------------------------------|
|----------------------------------------------------------------|
|---------------9-9-9-9-9-9-9-7-7-7-7-7-7-7----------------------|
|---------------9-9-9-9-9-9-9-7-7-7-7-7-7-7----------------------|
|----9/7--9/7---7-7-7-7-7-7-7-5-5-5-5-5-5-5----------------------|
|----------------------------------------------------------------|





Guitar1
|----------------------------------------------------------------|
|----------------------------------------------------------------|
|----------------------------------------------------------------|
|----------------------------------------------------------------|
|----------------------------------------------------------------|
|-1/2-2-2-2-2-2—1/2-2-2-2-2-2-2----------------------------------|






Guitar1
|--------------------------------------------------------------|
|--------------------------------------------------------------|
|--------------------------------------------------------------|
|6-6-6-6-6-6-6-4-4-4-4-4-4-4-4-7-7-7-7-7-7-7-7-9-9-9-9-9-9-9-9-|X2
|6-6-6-6-6-6-6-4-4-4-4-4-4-4-4-7-7-7-7-7-7-7-7-9-9-9-9-9-9-9-9-| 
|4-4-4-4-4-4-4-2-2-2-2-2-2-2-2-5-5-5-5-5-5-5-5-7-7-7-7-7-7-7-7-|
Guitar2
|----------------------------------------------------------------|
|----------------------------------------------------------------|
|----------------------------------------------------------------|
|----------------------------------------------------------------|
|-1-1-0-0-1-1-0-0-2-2-1-1-2-2-1-1-4-4-3-3-4-4-3-3-5-5-4-4-5-5-6-6|
|----------------------------------------------------------------|

|----------------------------------------------------------------|
|----------------------------------------------------------------|
|-1-1-0-0-1-1-0-0-2-2-1-1-2-2-1-1-4-4-3-3-4-4-3-3-5-5-4-4-5-5----|
|----------------------------------------------------------------|
|----------------------------------------------------------------|
|----------------------------------------------------------------|






Guitar1
|----------------------------------------------------------------|
|----------------------------------------------------------------|
|----------------------------------------------------------------|
|--4-4-4-4-4-4-7-7-7-7-7-7-7-9-9-9-9-9-9-9-11-11-11-11-11---X2---|
|--4-4-4-4-4-4-7-7-7-7-7-7-7-9-9-9-9-9-9-9-11-11-11-11-11--------|
|--2-2-2-2-2-2-5-5-5-5-5-5-5-7-7-7-7-7-7-7-9-9-9-9-9-9-9---------|
Guitar2
|----------------------------------------------------------------|
|----------------------------------------------------------------|
|--4-5-4-3-1---4-5-4-3-1---4-5-4-3-1-7-5-4-2--------X2-----------|
|----------------------------------------------------------------|
|----------------------------------------------------------------|
|----------------------------------------------------------------|






Guitar1  Everything you do i can’t trust it
|----------------------------------------------------------------|
|----------------------------------------------------------------|
|----------------------------------------------------------------|
|5-5-4-4-5-5-4-4—-6-6-5-5-6-6-5-5--7-7-6-6-7-7-6-6-9-9-8-8-9-9-8-8
|5-5-4-4-5-5-4-4—-6-6-5-5-6-6-5-5--7-7-6-6-7-7-6-6-9-9-8-8-9-9-8-8
|3-3-2-2-3-3-2-2--4-4-3-3-4-4-3-3--5-5-4-4-7-7-6-6-7-7-6-6-7-7-6-6
Guitar2                                                         X2
|----------------13-11-9-7----------------13-11-9-8-7------------|
|-12-12-12-10-9------------12-12-12-10-9------------------X2-----|
|----------------------------------------------------------------|
|----------------------------------------------------------------|
|----------------------------------------------------------------|
|----------------------------------------------------------------|






End
Guitar1
|----------------------------------------------------------------|
|----------------------------------------------------------------|
|----------------------------------------------------------------|
|--5-5-5-5-5-5-7-7-7-7-7-7-9-9-9-9-9-11-11-11-11-----------------|
|--5-5-5-5-5-5-7-7-7-7-7-7-9-9-9-9-9-11-11-11-11----X4-----------|
|--3-3-3-3-3-3-5-5-5-5-5-5-7-7-7-7-7-9-9-9-9-9-9-----------------|
Guitar2
|----------------------------------------------------------------|
|----------------------------------------------------------------|
|----------------------------------------------------------------|
|-------------------------------------------------------------X4-|
|-1-1-0-0-1-1-0-0-2-2-1-1-2-2-1-1-4-4-3-3-4-4-3-3-5-5-4-4-5-5-6-6|
|----------------------------------------------------------------|






Tap to rate this tab
# A B C D E F G H I J K L M N O P Q R S T U V W X Y Z